Acordes:
E: 022100
G#m7/11: 4x442x
C#m7: x4245x
D#m7: x6467x
Bm7/11: 7x775x
C7aug/Bb: 6x655x
Amaj7: 5x665x
G#7aug: 4x455
C#m7/9: x4244x
B11: x2244x
B/A: 5x444x
G#m7: 4x444x
Am7/9: x05500
F#: 244322
Gmaj7: 3x443x
Em7: x7578x
F#m7: x97910x
Dm7/11: 10x10108x
D#aug7/C#: 9x988x
Cmaj7: 8x998x
B7aug: 7x788x
Em7/9: x7577x
D11: x5577x
D/C: 8x777x
Bm7: 7x777x
Estrofa 1:
E                  G#m7/11
Se que hoy me desperte para contar
C#m7     D#m7       Bm7/11        C7aug/Bb Amaj7 G#7aug 
 Para contar cada momento sin tu amor.

Estribillo:
            C#m7/9       B11     B/A  G#m7
Quien resistira (cuando el arte ataque)
            C#m7/9       B11     B/A  G#m7
Quien resistira (cuando el arte ataque).


Estrofa 2:
(igual)
Tu corazon tiene el sabor designal
Estas haciendo una cazuela de mi

Estribillo:
Quiero la mitad (de tu astral errante)
Quiero la mitad (de tu astral errante)

Estrofa 3:
(igual)
Porque las cosas siguen asi
Como la historia que arraso con el Peru

Estribillo:
(igual)
Quien resistira (cuando el arte ataque).
Quien resistira (cuando el arte ataque).

Puente:
Am7/9               F#
Y sin embargo me dijiste ya lo se, ya lo se
Am7/9                F#
No se si acaso te quisiste ya no se, ya no se
Am7/9                F#
Se que siempre fui de abajo
                Am7/9
Me dormiste, me tupiste y me dejaste caer

(modulación)

Estrofa 4:
Gmaj7             Bm7/11
  En esta zona el paraiso esta con vos
Em7            F#m7   Dm7/11      D#aug7/C# Cmaj7 B7aug
  Y entre tus cosas solo soy un yo-yo

Estribillo:
           Em7/9         D11     D/C    Bm7
Quiero la verdad (aunque estes llorando)
           Em7/9         D11     D/C   Bm7
Quiero la verdad (aunque estes llorando)

Estrofa 5:
(Igual a 1)
Se que siempre me perdi con tu querer
Yo se que siempre me perdi con tu querer

Estribillo:
(igual)
Quien resistira (cuando el arte ataque).
Quien resistira (cuando el arte ataque).

Afinada en: DADGBE 

Las posiciones de los acordes coinciden con las de la afinación standard (aunque no suenen igual)

G/F: 355433
F/Eb: 133211
Bb/Ab: 68866
C/Bb: 81010988
Csus4/Bb: 810101088
Dm11: 055565
Ab/Gb: 244322
Intro: G/F

Estrofa 1:
F/Eb          Bb/Ab   C/Bb
Alguien vio a este anciano
F/Eb          Bb/Ab   C/Bb  (Csus4/Bb - C/Bb)
sólo aquí en el desierto
  Bb/Ab
pidiendo limosna a los cactus
 F/Eb               Bb/Ab C/Bb (Csus4/Bb - C/Bb)
con su infatigable violín
 F/Eb               Bb/Ab C/Bb (Csus4/Bb - C/Bb)
con su infatigable violín.

Estrofa 2:
(igual)
¿Alguien vió la luz de la aldea
de los niños que escriben en el cielo?
Es una vieja linterna
en el infinito tapiz
en el infinito tapiz

Bb/Ab
Ohhh

Corte:
e|----------------------------------------------|--||
b|----------------------------------------------|--||
g|--11--12-14--14/16/14--12-11---12/14/12---9-8-|--||
d|--0---0--0---0--------------------------------|x2||
a|--0---0--0---0--------------------------------|--||
D|--0---0--0---0--------------------------------|--||

Dm11 | Ab/Gb Bb/Ab | F/Eb G/F | Ab/Gb Bb/Ab | F/Eb G/F

Estrofa 3:
(igual)
Alguien soñó con las antorchas
que caen siempre desde el sol
dejando volar a sus manchas
por la fabulosa corola (del sol)
por la fabulosa corola

Estrofa 4:
(igual)
Alguien lo tiene al titiritero
con su loco carro de música
cuando escucha las guitarras
es un descontrolado delfín

Repite corte

Hay para ver en la moviola
o en el taxi de los sueños
en el cine de sábanas blancas
en la desopilante kermesse

Repite corte

Fin: G/F

[0:00]

e|-17b19--------20----17--------------20r19-19----s0-|
B|--------------------------18----20-----------------|
G|---------------------------------------------------|
D|---------------------------------------------------|
A|---------------------------------------------------|
E|---------------------------------------------------|

[0:17]

|-----------------15-13-12-------12-15-13-------13-12-10-9-|
|-12-13----15b17-----------13-15----------13-11------------|
|-------12-------------------------------------------------|
|----------------------------------------------------------|
|----------------------------------------------------------|
|----------------------------------------------------------|

|-7-9p7---------------------------------------15-13-12-------12-|
|-------10-9h10p9p7-9----s14--12-13----15b17-----------13-15----|
|-----------------------------------12--------------------------|
|---------------------------------------------------------------|
|---------------------------------------------------------------|
|---------------------------------------------------------------|

|-13-12---------------------------------------------------------------|
|-------15-13---------------------------------------------------------|
|-------------15-14-12------------------------------------9h11p9----9-|
|----------------------15-13-12-------------------9-11h12--------12---|
|-------------------------------15-13-12----11-12---------------------|
|---------------------------------------------------------------------|

|-------------------12-14-15--17b19-17b19~-|
|----------12-13-15------------------------|
|-11-12-14---------------------------------|
|------------------------------------------|
|------------------------------------------|
|------------------------------------------|

|-17-15-14-12----13-12--------------------------|
|-------------15-------15-13----13-16-15-13-15~-|
|----------------------------15-----------------|
|-----------------------------------------------|
|-----------------------------------------------|
|-----------------------------------------------|

|-14-15----17b19~-19r17-15-14-12-------|
|-------15-----------------------15-13-|
|--------------------------------------|
|--------------------------------------|
|--------------------------------------|
|--------------------------------------|

|-------------------------------------------------------|
|-12----------------------------------------13-15~---s0-|
|----14p12-------------------------12-13-15-------------|
|----------15-14p12-15p14p12-13-15----------------------|
|-------------------------------------------------------|
|-------------------------------------------------------|

[0:54]

|--------------12--------------------------------------------------------|
|-15b17-15b17~----15-12-------15-12-----------------------12-------15-12-|
|-----------------------14-12-------14-12-11----11-----------14-12-------|
|--------------------------------------------14----12-14-----------------|
|------------------------------------------------------------------------|
|------------------------------------------------------------------------|

|-----------------14h15-14-12-14~-------------12-14-15s17-15-14-15-17--17b19-|
|-12-------15-12-----------------15-12--12-15--------------------------------|
|----14-12-------------------------------------------------------------------|
|----------------------------------------------------------------------------|
|----------------------------------------------------------------------------|
|----------------------------------------------------------------------------|

|-17b19~-17-15-14-----------------12----------------------------------------|
|-----------------17-15-13s12--15----15-12-------15-12----------------------|
|----------------------------14------------14-12-------14-12s11----11-------|
|---------------------------------------------------------------14----12-14-|
|---------------------------------------------------------------------------|
|---------------------------------------------------------------------------|

|-------------------12----------------------|
|----------12-13-15----15-13-12-------15-13-|
|-11-12-14----------------------14-12-------|
|-------------------------------------------|
|-------------------------------------------|
|-------------------------------------------|

|------------------------14-14--12-12----------|
|-12h13p12-----12-13-12---------------15-12-12-|
|----------14----------------------------------|
|----------------------------------------------|
|----------------------------------------------|
|----------------------------------------------|

|----------15--15--14-12--------------------------------15-13-11-10-10-|
|-12-13-15---------------15~-12-----------12-13~---s18--16-15-13-11-12-|
|-------------------------------14-12--14------------------------------|
|----------------------------------------------------------------------|
|----------------------------------------------------------------------|
|----------------------------------------------------------------------|

[1:37]

|--------------------------------------------------12-15-12--14-|
|--------------12-13-12h13p12----------------12-15--------------|
|-14b16-14b16~----------------14-12h14p12-14--------------------|
|---------------------------------------------------------------|
|---------------------------------------------------------------|
|---------------------------------------------------------------|

|-12--15-12-14--12-15-12-14-12-15-12-14-12-15-12-14-|
|---------------------------------------------------|
|---------------------------------------------------|
|---------------------------------------------------|
|---------------------------------------------------|
|---------------------------------------------------|

|-12h14p12----12-14-12h14p12--17b19--15-17-17b19~-17b19--17-15-14-|
|----------15-----------------------------------------------------|
|-----------------------------------------------------------------|
|-----------------------------------------------------------------|
|-----------------------------------------------------------------|
|-----------------------------------------------------------------|

|-12-10-------------12----------------------------------------|
|-------10s12----15----15-12-------15-12----------------------|
|-------------14-------------14-12-------14-12s11----11-------|
|-------------------------------------------------14----12-14-|
|-------------------------------------------------------------|
|-------------------------------------------------------------|

|-----------------12------------------12-----------------------------|
|---------12-13-15--15-13-12-----15-13--15-13--12h13p12----------15~-|
|-11-12-14------------------14-12------------------------14--12------|
|--------------------------------------------------------------------|
|--------------------------------------------------------------------|
|--------------------------------------------------------------------|

|-----------------------------------------------------|
|-13-12h13p12----------12-13-12--12----------12-13-12-|
|-------------14-12-14--------------14-12-14----------|
|-----------------------------------------------------|
|-----------------------------------------------------|
|-----------------------------------------------------|

|-14h15~-14h15~-14-12---------------------------15-13-11-10-10-|
|---------------------15~-12-----------12-13~---16-15-13-11-12-|
|----------------------------14-12--14-------------------------|
|--------------------------------------------------------------|
|--------------------------------------------------------------|
|--------------------------------------------------------------|

[2:20]

|-----------------15-13-12-------12-15-13-------13-12-10-9-|
|-12-13----15b17-----------13-15----------13-11------------|
|-------12-------------------------------------------------|
|----------------------------------------------------------|
|----------------------------------------------------------|
|----------------------------------------------------------|

|-7-9p7----------------------------------15-13-12-------12-|
|-------10-9h10p9p7-9----12-13----15b17-----------13-15----|
|------------------------------12--------------------------|
|----------------------------------------------------------|
|----------------------------------------------------------|
|----------------------------------------------------------|

|-13-12--------------------------------------------------------------|
|-------15-13--------------------------------------------------------|
|-------------15-14-12-----------------------------------9h11p9----9-|
|----------------------15-13-12---------------------9h11--------12---|
|-------------------------------15-13-12----9h11h12------------------|
|--------------------------------------------------------------------|

|-------------------12-14-15--17b19r17-17b19~-|
|----------12-13-15---------------------------|
|-11-12-14------------------------------------|
|---------------------------------------------|
|---------------------------------------------|
|---------------------------------------------|

|-17-15-14-12----13-12--------------------------|
|-------------15-------15-13----13-16-15-13-15~-|
|----------------------------15-----------------|
|-----------------------------------------------|
|-----------------------------------------------|
|-----------------------------------------------|

|-12h14p12-------14-14~---14-15----17b19~-|
|----------15h17----------------15--------|
|-----------------------------------------|
|-----------------------------------------|
|-----------------------------------------|
|-----------------------------------------|

|-17-15-14-12-----------------------------------------------------------|
|-------------15-13-12-------------------------------------------13-15~-|
|----------------------14-12----------------------------12-13-15--------|
|----------------------------15p14-15p14p12-14p12-13-15-----------------|
|-----------------------------------------------------------------------|
|-----------------------------------------------------------------------|

[2:56]

|-12h14-14p12-------------------|
|-------------15h17p15----------|
|----------------------16p14-16-|
|-------------------------------|
|-------------------------------|
|-------------------------------|

|-15b17-15-14-14p12h14-12-------------------------|
|-------------------------15h17p15----------------|
|----------------------------------16h18p16p14-16-|
|-------------------------------------------------|
|-------------------------------------------------|
|-------------------------------------------------|

|-17b19--17-15-17b19--17b19--17-15-17b19--17b19r17b19-17b19~-|
|------------------------------------------------------------|
|------------------------------------------------------------|
|------------------------------------------------------------|
|------------------------------------------------------------|
|------------------------------------------------------------|

|-17-15-14-------------------12----------------------12----------|
|----------17-15-13s12----15----15-13p12-------15-13----15-13p12-|
|----------------------14----------------14-12-------------------|
|----------------------------------------------------------------|
|----------------------------------------------------------------|
|----------------------------------------------------------------|

|--------------------------------------------------------|
|--------------------------------12----------12----------|
|-14-12s11h12p11----11--------------11-12-11----11-12-11-|
|----------------14----14-12-14--------------------------|
|--------------------------------------------------------|
|--------------------------------------------------------|

|----------------------------------------12-------------14b15-|
|-------------------------------12-13-15----15-13----12-------|
|-12p11----11----------11-12-14-------------------14----------|
|-------14----14-12-14----------------------------------------|
|-------------------------------------------------------------|
|-------------------------------------------------------------|

|-14-12-14~-14b15-14b15-14b15~-15r14-12-14-15b17--17r15~-|
|--------------------------------------------------------|
|--------------------------------------------------------|
|--------------------------------------------------------|
|--------------------------------------------------------|
|--------------------------------------------------------|

[3:16]

|-14-12----12-------------------------------------------------|
|-------15----15-12-------15-12-------------------------------|
|-------------------14-12-------14-12s11h12p11----11----------|
|----------------------------------------------14----14-12-14-|
|-------------------------------------------------------------|
|-------------------------------------------------------------|

|-------------------12-------------|
|----------12-13-15----15-13-12-12-|
|-11-12-14-------------------------|
|----------------------------------|
|----------------------------------|
|----------------------------------|

|-----------------12------------------12------------------------|
|---------12-13-15--15-13-12--12-13-15--15-13-12-----15-13-12---|
|-11-12-14------------------14------------------14-12--------14-|
|---------------------------------------------------------------|
|---------------------------------------------------------------|
|---------------------------------------------------------------|

|-------------------------------------12-14-15-|
|-----------------------------12-13-15---------|
|-11h12----11---------11-12-14-----------------|
|-------14----14-12-14-------------------------|
|----------------------------------------------|
|----------------------------------------------|

|-14-12-14--15-14-12-15s17-15----15-17b19--17-15-17b19~-|
|-----------------------------17------------------------|
|-------------------------------------------------------|
|-------------------------------------------------------|
|-------------------------------------------------------|
|-------------------------------------------------------|

|-19b20--19-17--19b20-19-17-19b20-19-17-19b20~-19-17-19-|
|-------------------------------------------------------|
|-------------------------------------------------------|
|-------------------------------------------------------|
|-------------------------------------------------------|
|-------------------------------------------------------|

|-17-15-14-------------------12----------------------------------------------|
|----------17-15-13s12----15----15-12-------15-12----------------------------|
|----------------------14-------------14-12-------14-11h12p11----11----------|
|-------------------------------------------------------------14----14-12-14-|
|----------------------------------------------------------------------------|
|----------------------------------------------------------------------------|

|--------------------------------------------------------------|
|----------12h13p12----12h13p12----12--15-12----12h15p12----12-|
|-11-12-14----------14----------14-----------14----------14----|
|--------------------------------------------------------------|
|--------------------------------------------------------------|
|--------------------------------------------------------------|

|-15-14-12h14p12----12--------12----------|
|----------------15-----15b17----12----12-|
|-----------------------------------14----|
|-----------------------------------------|
|-----------------------------------------|
|-----------------------------------------|

[3:40]

|-15-14-12-------------------------------------------------------------------|
|---------15-12--------15-13-12----------------------------------------------|
|--------------14-13-12--------14-12--------14-13-12-------------------------|
|-----------------------------------14-13-12--------14-12---14-13-12---------|
|--------------------------------------------------------14---------14-12----|
|-------------------------------------------------------------------------15-|

|-----------------------------------14-17-15-14-12----12--14r12-10-12b14~-|
|--------------------------------15----------------15---------------------|
|-----------------------14----16------------------------------------------|
|--------------12-14s16----17---------------------------------------------|
|--------12-14------------------------------------------------------------|
|-12--15------------------------------------------------------------------|

|-12b14-12-10-12b14-12-10-12b14-12~-10--------------------|
|--------------------------------------12p10--------------|
|--------------------------------------------12-11-9----9-|
|----------------------------------------------------12---|
|---------------------------------------------------------|
|---------------------------------------------------------|

|----------------------------------8-7h8p7----7-10b12-10-|
|-----7-8-7h8p7----7-10b12--10b12----------10------------|
|-7h9-----------9----------------------------------------|
|--------------------------------------------------------|
|--------------------------------------------------------|
|--------------------------------------------------------|

|-8-7----7-----------------------10-8-7----7--------|
|-----10---8--7h8p7---10-----7-8--------10---8-10-7-|
|-------------------9----7-9------------------------|
|---------------------------------------------------|
|---------------------------------------------------|
|---------------------------------------------------|

|------------------7------------|
|-8-7h8p7---7-8h10---10-8p7---7-|
|---------9-----------------9---|
|-------------------------------|
|-------------------------------|
|-------------------------------|

[4:07]

|------7-----------------7--------|
|-8h10---10-8p7---7h8h10---10-8p7-|
|---------------9-----------------|
|---------------------------------|
|---------------------------------|
|---------------------------------|

|--------7-----------------7-----------------7----|
|-7h8h10---10-8p7---7h8h10---10-8p7---7h8h10---10-|
|-----------------9-----------------9-------------|
|-------------------------------------------------|
|-------------------------------------------------|
|-------------------------------------------------|

|-8-7----10-7-8----7------------------------------------------|
|-----10--------10---10-8-10-8p7---7--------------------------|
|--------------------------------9---9-7-------------7--------|
|----------------------------------------10-9-7-9-10---10-9-7-|
|-------------------------------------------------------------|
|-------------------------------------------------------------|

|---------------------------------------------------------7----|
|----------------------------------------------7---7h8h10---10-|
|------7-----------------------------------7h9---9-------------|
|-9-10---10-9-7----7----------------7-9-10---------------------|
|---------------10---10-9----7-9-10----------------------------|
|-------------------------10-----------------------------------|

|-8-7----10-7----7-10s12--10------------------------12----14-12-15-14-15s17-|
|-----10------10--------------12s13--12--13s15--13-----15-------------------|
|---------------------------------------------------------------------------|
|---------------------------------------------------------------------------|
|---------------------------------------------------------------------------|
|---------------------------------------------------------------------------|

|-15-14----14-15-17b19-17-15-14-----14h15p14----14--14h15p14----14-|
|-------17----------------------17-----------17--------------17----|
|------------------------------------------------------------------|
|------------------------------------------------------------------|
|------------------------------------------------------------------|
|------------------------------------------------------------------|

|-14-15-14----------14-15-14----14-17-15p14----|
|----------17-15-17----------17-------------17-|
|----------------------------------------------|
|----------------------------------------------|
|----------------------------------------------|
|----------------------------------------------|

|-14-15-14----------14-15-14----14-17-15p14----14h15p14----14-|
|----------17-15-17----------17-------------17----------17----|
|-------------------------------------------------------------|
|-------------------------------------------------------------|
|-------------------------------------------------------------|
|-------------------------------------------------------------|

|-17b19-17b19-17b19~-17b19--17-15-17b19r17b19--17-15-14-12----12-------|
|----------------------------------------------------------15----15b17-|
|----------------------------------------------------------------------|
|----------------------------------------------------------------------|
|----------------------------------------------------------------------|
|----------------------------------------------------------------------|

[4:31]

|-12-----------------------------------------------------------------------|
|----15-12-------15-12--------------------------------------12-13-12h13p12-|
|----------14-12-------14-12s11----11-------11-12-11--12-14----------------|
|-------------------------------14----12-14--------------------------------|
|--------------------------------------------------------------------------|
|--------------------------------------------------------------------------|

|------------------------------------------------------|
|------------------------------------------------------|
|-11b12r11-11b12r11-11b12~-11b12r11-----11-------11----|
|------------------------------------14----12-14----14-|
|------------------------------------------------------|
|------------------------------------------------------|

|-------------------------------------------12------------|
|-------------------------12----13-12-15-13-----15-13--12-|
|-------11----12-11-14-12----14---------------------------|
|-14-12----14---------------------------------------------|
|---------------------------------------------------------|
|---------------------------------------------------------|

|-12----------12----------12----------14b15~-14b15r14--15b17r15-|
|----15-13-12----15-13-12----15-13-12---------------------------|
|---------------------------------------------------------------|
|---------------------------------------------------------------|
|---------------------------------------------------------------|
|---------------------------------------------------------------|

|-15--14--12--------------------------------------------------------------|
|------------15-12-------15p13p12--------------------------------------12-|
|------------------14-12----------14-12s11----11-------11-12-11--11-14----|
|------------------------------------------14----12-14--------------------|
|-------------------------------------------------------------------------|
|-------------------------------------------------------------------------|

[4:59]

|---------------------------------------------|
|-15--12-----15--12-----15--12-----15--12-----|
|---------14---------14---------14---------14-|
|---------------------------------------------|
|---------------------------------------------|
|---------------------------------------------|

|------------------------------------------------------0-|
|-15--12-----15--12-----15--12-----15--12-----15-15b17---|
|---------14---------14---------14---------14------------|
|--------------------------------------------------------|
|--------------------------------------------------------|
|--------------------------------------------------------|

|--------------14b15-14--12-15b17-15--14-12-14--12----------------|
|-15b17-15--12--------------------------------------15-12---------|
|----------------------------------------------------------14--12-|
|-----------------------------------------------------------------|
|-----------------------------------------------------------------|
|-----------------------------------------------------------------|

|-----------------------------------------------------------------|
|-15-12-----------------------------------12-------15-12-------15-|
|-------14-12-11----11-------11-12-11--------14-12-------14-12----|
|----------------14----12-14----------14--------------------------|
|-----------------------------------------------------------------|
|-----------------------------------------------------------------|

|----------------------------------------------|
|-12-------15-12-------------------------------|
|----14-12-------14-12s11h12p11----11----------|
|-------------------------------14----14-12-14-|
|----------------------------------------------|
|----------------------------------------------|

|-------------------12-14-15p14p12-------14-17----14-17b19-17b19-|
|----------12-13-15----------------15-17-------17----------------|
|-11-12-14-------------------------------------------------------|
|----------------------------------------------------------------|
|----------------------------------------------------------------|
|----------------------------------------------------------------|

|-17b19-17b19--17-15-14----14-----------------------15b17--15-12-15b17--15-|
|-----------------------17----17-15-14----14-17b19~------------------------|
|--------------------------------------16----------------------------------|
|--------------------------------------------------------------------------|
|--------------------------------------------------------------------------|
|--------------------------------------------------------------------------|

[5:29]

|-12----12--------12-------------------------------------------------------|
|----15----15b17-----15p12-------15p12-------------------------------------|
|--------------------------14p12-------14-11h12p11----11----------11-12h14-|
|--------------------------------------------------14----14-12-14----------|
|--------------------------------------------------------------------------|
|--------------------------------------------------------------------------|

|-12-------------------------------------------------|
|----15-12----12--12--12--12--12--12--12--12--12--12-|
|----------14----------------------------------------|
|----------------------------------------------------|
|----------------------------------------------------|
|----------------------------------------------------|

|--------------------------------------------------|
|-12-------12--------12-12-------------------------|
|----14b16----14b16--------14b16-14b16-14b16-14b16-|
|--------------------------------------------------|
|--------------------------------------------------|
|--------------------------------------------------|

[5:44]

|--------------------------13-------------------12--------------|
|-12----12-15--12-15b17~-----------15--15b17~------15p12-15b17~-|
|----14------------------------15-------------------------------|
|---------------------------------------------------------------|
|---------------------------------------------------------------|
|---------------------------------------------------------------|

|----------------------13-------------------14--14b16~-|
|-15b17-15b17-15b17~-----------15--15b17~--------------|
|--------------------------15--------------------------|
|------------------------------------------------------|
|------------------------------------------------------|
|------------------------------------------------------|

|-17--17b19-17b19-17b19~---20--17----------20r19-19----17s15-17-14-|
|----------------------------------18--20--------------------------|
|------------------------------------------------------------------|
|------------------------------------------------------------------|
|------------------------------------------------------------------|
|------------------------------------------------------------------|

|-14-15-17-17b19--17b19--17b19--17b19~---20--17----------20r19--19-|
|------------------------------------------------18--20------------|
|------------------------------------------------------------------|
|------------------------------------------------------------------|
|------------------------------------------------------------------|
|------------------------------------------------------------------|

|-17s15-15s14h15p14----14-------14----------------14----------------14-|
|-------------------17----17p15----17-15-14-15-17----17-15-14-15-17----|
|----------------------------------------------------------------------|
|----------------------------------------------------------------------|
|----------------------------------------------------------------------|
|----------------------------------------------------------------------|

|----------------12----------------------------------------------------|
|-17-15-14-15-17----15-12h14p12----------------------------------------|
|-------------------------------14-12s11----11-14-12p11----11-14-12-11-|
|----------------------------------------14-------------14-------------|
|----------------------------------------------------------------------|
|----------------------------------------------------------------------|

|------------------------------------------------------------|
|---------------------------------------------------12-14-15-|
|------------------------------------------11-12-14----------|
|-12-11-12-11-14-12-11-----------11-12--14-------------------|
|----------------------14-12-14------------------------------|
|------------------------------------------------------------|

Acordes: 
Fmaj7: xx3210
Cmaj7: x32000
E: 022100
F: 133211
G: 355433
C: x32010
Am: x02210
C6: x32210
Asus2: x02200
Bsus2: x24422
Estrofa 1:
Fmaj7
Una palabra
Cmaj7
dame una palabra
Fmaj7
una palabra
Cmaj7
solo una palabra
Fmaj7
dame suave brisa
Cmaj7
brisa de la playa
Fmaj7           E
dame una palabra 

Verso:
F
200 años
  G         C  E
¿de qué sirvió
F                G       C   Am E 
haber cruzado a nado la mar? 

Estrofa 2:
C6
Una palabra, 
Cmaj7
solo una palabra
C6
dame la brisa
Cmaj7
dame toda brisa
C6
suave junco, 
Cmaj7
junco de la orilla
C6              E 
dame una palabra

Verso:
(igual)
200 años
¿de qué sirvió
haber cruzado a nado la mar?

Intermedio sobre: 
Asus2 - Bsus2 (x8)

Corte:
e|----------------------------(12)-|
b|----------------------------(12)-|
g|----------------------------(12)-|
d|-2---2-0-------2------------(12)-|
a|-3-----2---3-2-0----3-2-----(12)-|
E|-------3---1-----3--1-0----------|

Verso:
(igual)
200 años
¿de qué sirvió
haber cruzado a nado la mar?

Fin: Asus2 - Bsus2

 

Acordes:
A: x07650
Asus4: x07750
E/A: x02100
Esus4/A: x02200
D: xx0232
Dsus4: xx0233
E: 022100
Esus4: 022200
C#7: x4342x
Bm: x24432
C/G: 332010
D9add11/A: 554030
Intro:
A - Asus4 | E/A - Esus4/A | D - Dsus4 | E - Esus4 |

Estrofa 1:
 A        Asus4   A
Hoy tu polle   -  ra,
 E/A     Esus4/A  E/A
gira al vien   -  to
  D       Dsus4 D     E Esus4 E
quiero verte   bai-lar
 A       Asus4   A
entre la gen -  te,
 E/A     Esus4/A E/A 
entre la gen -   te,
   D     Dsus4 D   E Esus4 C#7
quiero verte   bai-lar

Verso:
     Bm        A  
No importa tu nombre
              Esus4 A
si me puedes contestar
     Bm         A
son tantos tus sueños
           C/G
que ves el cielo
    D9add11/A
mientras te veo bailar

Repite intro

Estrofa 2:
Hoy tu sonrisa es limpia y gira
quiero verte bailar
entre la gente
entre la gente 
quiero verte bailar

Verso:
(igual)
no importa tu nombre
si me puedes contestar
son tantos tus sueños
que ves el cielo
mientras te veo bailar

Repite intro

Fin: D9add11

Acordes:
C#/B: x2x212
A: x02220
Asus4: x02230
C#m7: x46454
F#m7: 242222
D6/9: x54454
Bm7: x24232
F: 1332xx
G: 3554xx
A: 5776xx
Bm7(II): 797777
C#6/D#: x66666
B5: 799xxx
Bm7(b13): x25232
F#m: 244222
Cmaj7/G: 332000
C#7: x46464

Estrofa 1:
C#/B                              [A - Asus4]
 Ahí va el Capitán Beto por el espacio,
C#/B                              [A - Asus4] 
 con su nave de fibra hecha en Haedo
C#m7         F#m7
 Ayer colectivero, 
C#m7              F#m7       D6/9
 hoy amo entre los amos del aire 

Estrofa 2:
(igual)
Ya lleva quince años en su periplo
su equipo es tan precario como su destino. 
Sin embargo un anillo extraño
ahuyenta sus peligros en el cosmos

Riff:
E|----------------------|-------------------------|
B|----------------------|-------------------------|
G|----------------------|-------------------------|
D|----------------------|-------------------------|
A|-----6-7-4-6---4------|-----6-7-4-6---4---------|
E|-0-5---------5---5-7--|-0-5---------5---5-7---0-|

Estrofa 3:
(igual)
Ahí va el Capitán Beto por el espacio, 
la foto de Carlitos sobre el comando
y un banderín de River Plate
y la triste estampita de un santo. 

Verso:
F#m7     Bm7      C#m7       F      G      A
¿Dónde está el lugar al que todos llaman cielo? 
           Bm7        C#m7  
Si nadie viene hasta aquí
     F      G     A       E6/9    Bm7(II)  C#6/D#  B5
a cebarme unos amargos como en mi viejo umbral
          C#m7   Bm7(b13)     F#m             Cmaj7/G C#7 F#m
¿Por qué habré venido hasta aquí, si no puedo más de soledad? 
           Cmaj7/G  C#7  A
Ya no puedo más de soledad 

Estrofa 4:
(igual)
Su anillo lo inmuniza contra el peligro, 
pero no lo protege de la tristeza. 
Surcando la galaxia del Hombre, 
ahí va el Capitán Beto, el errante. 

Verso:
(igual)
¿Dónde habrá una ciudad en la que alguien silbe un tango? 
¿Dónde están, dónde están
los camiones de basura, mi vieja y el café? 
Si esto sigue así como así, ni una triste sombra quedará, 
ni una triste sombra quedará. 

Estrofa 5:
(igual)
Ahí va el Capitán Beto por el espacio, 
regando los malvones de su cabina. 
Sín brújula y sin radio, 
jamás podrá volver a la Tierra

Repite riff

Final:
C#/B                                [A - Asus4]
  Tardaron muchos años hasta encontrarlo. 
C#/B                          A         C#m7     Bm7
El anillo de Beto llevaba inscripto un signo del alma

Afinada aprox. en A=432hz. 

Acordes:
D/F#: 200232
E/G#: 400454
A: x07655 | x02220
Gm7: xx5766
G: 320003
Dadd9/A: x02232
Gmaj7: x109777
Cmaj7/G: 322000
D: x00232
Em7: 022033
Am7: x02013
D/F#: xx4232
Gmaj7(II): xx5432
F#: 244322
F6/9: 103233
Intro:
     D/F#         E/G#           A          Gm7       G                 Dadd9 - A
e|------2---|-------4----|-------7h5----|----6-----|-3-3-3-3-2-0------|-2--0-0||
b|----3---3-|-----5---4--|-----5-----5--|------6---|-0-0-0------3-2-0-|-3--2-2||
g|--2------2|---4-------4|---6---------6|-7------7-|-0-0-0-----------2|-2--2-2||
d|----------|------------|--------------|-5--------|-0-0-0------------|-2--2-2||
a|----------|------------|-0------------|----------|-2-2-2------------|-0--0-0||
E|2---------|-4----------|--------------|----------|-3-3-3------------|-------||

Estrofa 1:
D/F#          E/G#         A
  Ella solo intenta ser feliz
   Gm7        G Dadd9/A A
Tropezando está
D/F#          E/G#            A
 Nadan hoy sus ojos entre el rimel
    Gm7      Gmaj7
Su mentira, ya se hundió
       Cmaj7/G D
En la hiedra

Verso:
Em7          Am7  D/F#
Ves, en su abismo
         Gmaj7(II)        Em7
Con sus enaguas quiere escapar
        Am7 D/F#
De la bruma
      Gmaj7(II)
Tan apurada está
       F#                 F6/9
Que atropella el viento en la avenida

Corte:
e|----------------------------------|--||
b|---------------------10b11b10--8--|--||
g|-----2---0--7b8b7-5--------------9|--||
d|-------4--------------------------|x4||
a|---0------------------------------|--||
E|-0--------------------------------|--||

Estrofa 2:
(igual)
Hoy su inútil pétalo secó
Por su soledad
Y con las campanas se divierte
Pensando que son de aquí
La muerte

Verso:
(igual)
Ah, si pudiera
Si ella quisiera abrirse del ser
Y la nada
Tal vez podría ver
Que su Dios está en la adolescencia

Repite corte

Estrofa 3:
(igual)
Correrás al fin con frenesí
Por tu libertad
Pero ni bien una lagrima caiga
mil estrellas juzgaran que es en vano

Ya que Dios es un mundo 
En el que amar es la eternidad
Que uno busca 
Y no lo pienses mas
Que tu mueca esta tan despintada

Fin: Armónicos en 12

Acordes:
Em7: 022030
Am7: x02010
Bm7: x24232
Cmaj7/G: 332000
Estrofa 1:
Em7         Am7        Bm7    Cmaj7/G
 El vino entibia sueños al jadear 
Em7         Am7        Bm7     Cmaj7/G
 Desde su boca de verdeado dulzor 
Em7           Am7          Bm7     Cmaj7/G
 Y entre los libros de la buena memoria 
Em7           Am7          Bm7          Cmaj7/G          
 Se queda oyendo como un ciego frente al mar

Verso:
Bm7         Em7
 Mi voz le llegará 
Bm7          Em7
 Mi boca también
Bm7          Em7
 Tal vez le confiaré
     Am7       Bm7        Cmaj7/G
que eras el vestigio del futuro. 

Estrofa 2:
(igual)
Rojas y verdes luces del amor 
prestidigitan bajo un halo de rouge 
Que sombra extraña te ocultó de mi guiño 
que nunca oiste la hojarasca crepitar?

Verso:
(igual)
Pues yo te escribiré 
Yo te haré llorar 
Mi boca besará 
toda la ternura de tu acuario. 

Estrofa 2:
(igual)
Más si la luna enrojeciera en sed 
O las impalas recorrieran tu estanque 
No volverías a triunfar en tu alma? 
Yo sé que harías largos viajes por llegar. 

Verso:
(igual)
Parado estoy aquí 
Esperándote 
Todo se oscureció 
Ya no sé si el mar descansará

Solo:
  Em7  Am7             Bm7    Cmaj7/G
e|--------------------------------|
b|--------------------------------|
g|-9/11-12--12h14-12--14-16-16--9-|
d|--------------------------------|
a|--------------------------------|
E|--------------------------------|

Estrofa 3:
(igual)
Habrá crecido un tallo en el nogal 
La luz habrá tiznado gente sin fe 
Esta botella se ha vaciado también 
Que ni los sueños se cobijan del rumor. 

Verso:
(igual)
Licor no vuelvas ya 
Deja de reir 
No es necesario más 
Ya se ven los tigres en la lluvia 

Acordes:
Am: x02210
F#m7(b5): 2x2210
Fmaj7: xx3210
E7:020100
Dm7: xx0211
C6add5: x3x213
E7(#9): 020144
C/G: 332010
D9: x5455x
Intro:
e|-----9---------5---------1-0--|--||
b|-10h9--8h7--6h5---4h3----3-1--|--||
g|----------7-----------3--2-2--|--||
d|-------------------------0-2--|x3||
a|-9-----7----5-----3--------0--|--||
E|------------------------------|--||

Am - F#m7(b5) - Fmaj7 - E7 (x2)

Estrofa 1:
    Am         F#m7(b5) Fmaj7  E7
Temprano el durazno del árbol cayó
    Am       F#m7(b5)   Fmaj7     E7
Su piel era rosa      dorada del sol
      Dm7         C6add5    Fmaj7 E7(#9)
Y al verse en la suerte de todo frutal
      Am           F#m7(b5)  Fmaj7   E7     Am 
A la orilla de un río     su fe lo hizo llegar

Verso:
C/G  
Dicen que en este valle
Fmaj7                      Am    Am F#m7(b5) Fmaj7 E7
Los duraznos son de los duendes

Estrofa 2:
(igual)
Pasó cierto tiempo en el mismo lugar
Hasta que un buen día se puso a escuchar
Una melodía muy triste del sur
Que así le lloraba desde su interior: 

Verso:
"Quién canta es tu carozo
Pues tu cuerpo al fin tiene un alma

Y si tu ser estalla
Será tu corazón el que sangre

Y la canción que escuchas
Tu cuerpo abrirá con el alba"

Solo: igual a estrofa

Estrofa 3:
(igual)
La brisa de enero a la orilla llegó
La noche del tiempo sus horas cumplió
Y al llegar el alba el carozo cantó
Partiendo al durazno que al río cayó
Y el durazno partido
Ya sangrando está bajo el agua

Fin: como intro