Acordes:
Bb5: x133xxx
C5: x355xx
C#5: x466xx
G#5: 466xxx
D#5: x688xx
F#5: 244xxx
G#5: 466xxx
F5: 133xxx
Intro:     
                                                    (Riff) 
                                     Bb5  C5 C#5 G#5      Bb5  D#5 C#5    
e|--------------------------------||-----------------|--|------------|--||
b|--------------------------------||-----------------|--|------------|--||
g|--------------------------------||-3-3---5--6------|--|-3-3---8--6-|--||
d|-3-3-3-3-3-3-3-3-3-3-3-3-3-3-3-3||-3-3---5--6---6--|x3|-3-3---8--6-|x2||
A|--------------------------------||-1-1---3--4---6--|--|-1-1---6--4-|--||
E|--------------------------------||--------------4--|--|------------|--||
PM................................

Estrofa 1:
Bb5                          C5 C#5 G#5 
A ver con cual nos quedamos
Bb5                    C5 C#5 G#5
Tenemos que decidir,
Bb5                    C5 C#5 G#5
aunque esté desesperado
Bb5                    C5 C#5
hay tiempo para elegir.

Verso 1:
G#5 Bb5 C5 C#5
Oh no
G#5 Bb5 C5 C#5
Oh yeah
G#5 Bb5 C5 C#5
Oh no
G#5 Bb5 C5 C#5
Oh yeah

Estrofa 2:
(igual)
Mucho tiempo ha pasado
Desde que estamos aquí
Muchas armas a mi lado
Eso no es para mí

Verso 2:
(igual)
Oh no
Oh yeah
Oh no
Oh yeah


Puente: 
  F5         C#5 C5    C#5 C5 A#5 G#5 G-F#-F
e|-----------------|--||--------------------|
b|-----------------|--||--------------------|
g|------------6--5-|--||6--5----------------|
d|-3-3-3-3-3--6--5-|x4||6--5--8---6---5-4-3-|
a|-3-3-3-3-3--4--3-|--||4--3--8---6---5-4-3-|
E|-1-1-1-1-1-------|--||------6---4---3-2-1-|

Solo: Sobre Fm

Estrofa 3:
(igual)
Un castillo de piedra
Miro las aves pasar,
No creas que soy muy listo
Pero yo aquí he de quedar

Verso 3:
(igual)
Oh no
Oh yeah
Oh no
Oh yeah

Bb5 C5 C#5 D#5

Fin: Riff

Deja un comentario

Tu dirección de correo electrónico no será publicada. Los campos obligatorios están marcados con *