[0:00]

e|-17b19--------20----17--------------20r19-19----s0-|
B|--------------------------18----20-----------------|
G|---------------------------------------------------|
D|---------------------------------------------------|
A|---------------------------------------------------|
E|---------------------------------------------------|

[0:17]

|-----------------15-13-12-------12-15-13-------13-12-10-9-|
|-12-13----15b17-----------13-15----------13-11------------|
|-------12-------------------------------------------------|
|----------------------------------------------------------|
|----------------------------------------------------------|
|----------------------------------------------------------|

|-7-9p7---------------------------------------15-13-12-------12-|
|-------10-9h10p9p7-9----s14--12-13----15b17-----------13-15----|
|-----------------------------------12--------------------------|
|---------------------------------------------------------------|
|---------------------------------------------------------------|
|---------------------------------------------------------------|

|-13-12---------------------------------------------------------------|
|-------15-13---------------------------------------------------------|
|-------------15-14-12------------------------------------9h11p9----9-|
|----------------------15-13-12-------------------9-11h12--------12---|
|-------------------------------15-13-12----11-12---------------------|
|---------------------------------------------------------------------|

|-------------------12-14-15--17b19-17b19~-|
|----------12-13-15------------------------|
|-11-12-14---------------------------------|
|------------------------------------------|
|------------------------------------------|
|------------------------------------------|

|-17-15-14-12----13-12--------------------------|
|-------------15-------15-13----13-16-15-13-15~-|
|----------------------------15-----------------|
|-----------------------------------------------|
|-----------------------------------------------|
|-----------------------------------------------|

|-14-15----17b19~-19r17-15-14-12-------|
|-------15-----------------------15-13-|
|--------------------------------------|
|--------------------------------------|
|--------------------------------------|
|--------------------------------------|

|-------------------------------------------------------|
|-12----------------------------------------13-15~---s0-|
|----14p12-------------------------12-13-15-------------|
|----------15-14p12-15p14p12-13-15----------------------|
|-------------------------------------------------------|
|-------------------------------------------------------|

[0:54]

|--------------12--------------------------------------------------------|
|-15b17-15b17~----15-12-------15-12-----------------------12-------15-12-|
|-----------------------14-12-------14-12-11----11-----------14-12-------|
|--------------------------------------------14----12-14-----------------|
|------------------------------------------------------------------------|
|------------------------------------------------------------------------|

|-----------------14h15-14-12-14~-------------12-14-15s17-15-14-15-17--17b19-|
|-12-------15-12-----------------15-12--12-15--------------------------------|
|----14-12-------------------------------------------------------------------|
|----------------------------------------------------------------------------|
|----------------------------------------------------------------------------|
|----------------------------------------------------------------------------|

|-17b19~-17-15-14-----------------12----------------------------------------|
|-----------------17-15-13s12--15----15-12-------15-12----------------------|
|----------------------------14------------14-12-------14-12s11----11-------|
|---------------------------------------------------------------14----12-14-|
|---------------------------------------------------------------------------|
|---------------------------------------------------------------------------|

|-------------------12----------------------|
|----------12-13-15----15-13-12-------15-13-|
|-11-12-14----------------------14-12-------|
|-------------------------------------------|
|-------------------------------------------|
|-------------------------------------------|

|------------------------14-14--12-12----------|
|-12h13p12-----12-13-12---------------15-12-12-|
|----------14----------------------------------|
|----------------------------------------------|
|----------------------------------------------|
|----------------------------------------------|

|----------15--15--14-12--------------------------------15-13-11-10-10-|
|-12-13-15---------------15~-12-----------12-13~---s18--16-15-13-11-12-|
|-------------------------------14-12--14------------------------------|
|----------------------------------------------------------------------|
|----------------------------------------------------------------------|
|----------------------------------------------------------------------|

[1:37]

|--------------------------------------------------12-15-12--14-|
|--------------12-13-12h13p12----------------12-15--------------|
|-14b16-14b16~----------------14-12h14p12-14--------------------|
|---------------------------------------------------------------|
|---------------------------------------------------------------|
|---------------------------------------------------------------|

|-12--15-12-14--12-15-12-14-12-15-12-14-12-15-12-14-|
|---------------------------------------------------|
|---------------------------------------------------|
|---------------------------------------------------|
|---------------------------------------------------|
|---------------------------------------------------|

|-12h14p12----12-14-12h14p12--17b19--15-17-17b19~-17b19--17-15-14-|
|----------15-----------------------------------------------------|
|-----------------------------------------------------------------|
|-----------------------------------------------------------------|
|-----------------------------------------------------------------|
|-----------------------------------------------------------------|

|-12-10-------------12----------------------------------------|
|-------10s12----15----15-12-------15-12----------------------|
|-------------14-------------14-12-------14-12s11----11-------|
|-------------------------------------------------14----12-14-|
|-------------------------------------------------------------|
|-------------------------------------------------------------|

|-----------------12------------------12-----------------------------|
|---------12-13-15--15-13-12-----15-13--15-13--12h13p12----------15~-|
|-11-12-14------------------14-12------------------------14--12------|
|--------------------------------------------------------------------|
|--------------------------------------------------------------------|
|--------------------------------------------------------------------|

|-----------------------------------------------------|
|-13-12h13p12----------12-13-12--12----------12-13-12-|
|-------------14-12-14--------------14-12-14----------|
|-----------------------------------------------------|
|-----------------------------------------------------|
|-----------------------------------------------------|

|-14h15~-14h15~-14-12---------------------------15-13-11-10-10-|
|---------------------15~-12-----------12-13~---16-15-13-11-12-|
|----------------------------14-12--14-------------------------|
|--------------------------------------------------------------|
|--------------------------------------------------------------|
|--------------------------------------------------------------|

[2:20]

|-----------------15-13-12-------12-15-13-------13-12-10-9-|
|-12-13----15b17-----------13-15----------13-11------------|
|-------12-------------------------------------------------|
|----------------------------------------------------------|
|----------------------------------------------------------|
|----------------------------------------------------------|

|-7-9p7----------------------------------15-13-12-------12-|
|-------10-9h10p9p7-9----12-13----15b17-----------13-15----|
|------------------------------12--------------------------|
|----------------------------------------------------------|
|----------------------------------------------------------|
|----------------------------------------------------------|

|-13-12--------------------------------------------------------------|
|-------15-13--------------------------------------------------------|
|-------------15-14-12-----------------------------------9h11p9----9-|
|----------------------15-13-12---------------------9h11--------12---|
|-------------------------------15-13-12----9h11h12------------------|
|--------------------------------------------------------------------|

|-------------------12-14-15--17b19r17-17b19~-|
|----------12-13-15---------------------------|
|-11-12-14------------------------------------|
|---------------------------------------------|
|---------------------------------------------|
|---------------------------------------------|

|-17-15-14-12----13-12--------------------------|
|-------------15-------15-13----13-16-15-13-15~-|
|----------------------------15-----------------|
|-----------------------------------------------|
|-----------------------------------------------|
|-----------------------------------------------|

|-12h14p12-------14-14~---14-15----17b19~-|
|----------15h17----------------15--------|
|-----------------------------------------|
|-----------------------------------------|
|-----------------------------------------|
|-----------------------------------------|

|-17-15-14-12-----------------------------------------------------------|
|-------------15-13-12-------------------------------------------13-15~-|
|----------------------14-12----------------------------12-13-15--------|
|----------------------------15p14-15p14p12-14p12-13-15-----------------|
|-----------------------------------------------------------------------|
|-----------------------------------------------------------------------|

[2:56]

|-12h14-14p12-------------------|
|-------------15h17p15----------|
|----------------------16p14-16-|
|-------------------------------|
|-------------------------------|
|-------------------------------|

|-15b17-15-14-14p12h14-12-------------------------|
|-------------------------15h17p15----------------|
|----------------------------------16h18p16p14-16-|
|-------------------------------------------------|
|-------------------------------------------------|
|-------------------------------------------------|

|-17b19--17-15-17b19--17b19--17-15-17b19--17b19r17b19-17b19~-|
|------------------------------------------------------------|
|------------------------------------------------------------|
|------------------------------------------------------------|
|------------------------------------------------------------|
|------------------------------------------------------------|

|-17-15-14-------------------12----------------------12----------|
|----------17-15-13s12----15----15-13p12-------15-13----15-13p12-|
|----------------------14----------------14-12-------------------|
|----------------------------------------------------------------|
|----------------------------------------------------------------|
|----------------------------------------------------------------|

|--------------------------------------------------------|
|--------------------------------12----------12----------|
|-14-12s11h12p11----11--------------11-12-11----11-12-11-|
|----------------14----14-12-14--------------------------|
|--------------------------------------------------------|
|--------------------------------------------------------|

|----------------------------------------12-------------14b15-|
|-------------------------------12-13-15----15-13----12-------|
|-12p11----11----------11-12-14-------------------14----------|
|-------14----14-12-14----------------------------------------|
|-------------------------------------------------------------|
|-------------------------------------------------------------|

|-14-12-14~-14b15-14b15-14b15~-15r14-12-14-15b17--17r15~-|
|--------------------------------------------------------|
|--------------------------------------------------------|
|--------------------------------------------------------|
|--------------------------------------------------------|
|--------------------------------------------------------|

[3:16]

|-14-12----12-------------------------------------------------|
|-------15----15-12-------15-12-------------------------------|
|-------------------14-12-------14-12s11h12p11----11----------|
|----------------------------------------------14----14-12-14-|
|-------------------------------------------------------------|
|-------------------------------------------------------------|

|-------------------12-------------|
|----------12-13-15----15-13-12-12-|
|-11-12-14-------------------------|
|----------------------------------|
|----------------------------------|
|----------------------------------|

|-----------------12------------------12------------------------|
|---------12-13-15--15-13-12--12-13-15--15-13-12-----15-13-12---|
|-11-12-14------------------14------------------14-12--------14-|
|---------------------------------------------------------------|
|---------------------------------------------------------------|
|---------------------------------------------------------------|

|-------------------------------------12-14-15-|
|-----------------------------12-13-15---------|
|-11h12----11---------11-12-14-----------------|
|-------14----14-12-14-------------------------|
|----------------------------------------------|
|----------------------------------------------|

|-14-12-14--15-14-12-15s17-15----15-17b19--17-15-17b19~-|
|-----------------------------17------------------------|
|-------------------------------------------------------|
|-------------------------------------------------------|
|-------------------------------------------------------|
|-------------------------------------------------------|

|-19b20--19-17--19b20-19-17-19b20-19-17-19b20~-19-17-19-|
|-------------------------------------------------------|
|-------------------------------------------------------|
|-------------------------------------------------------|
|-------------------------------------------------------|
|-------------------------------------------------------|

|-17-15-14-------------------12----------------------------------------------|
|----------17-15-13s12----15----15-12-------15-12----------------------------|
|----------------------14-------------14-12-------14-11h12p11----11----------|
|-------------------------------------------------------------14----14-12-14-|
|----------------------------------------------------------------------------|
|----------------------------------------------------------------------------|

|--------------------------------------------------------------|
|----------12h13p12----12h13p12----12--15-12----12h15p12----12-|
|-11-12-14----------14----------14-----------14----------14----|
|--------------------------------------------------------------|
|--------------------------------------------------------------|
|--------------------------------------------------------------|

|-15-14-12h14p12----12--------12----------|
|----------------15-----15b17----12----12-|
|-----------------------------------14----|
|-----------------------------------------|
|-----------------------------------------|
|-----------------------------------------|

[3:40]

|-15-14-12-------------------------------------------------------------------|
|---------15-12--------15-13-12----------------------------------------------|
|--------------14-13-12--------14-12--------14-13-12-------------------------|
|-----------------------------------14-13-12--------14-12---14-13-12---------|
|--------------------------------------------------------14---------14-12----|
|-------------------------------------------------------------------------15-|

|-----------------------------------14-17-15-14-12----12--14r12-10-12b14~-|
|--------------------------------15----------------15---------------------|
|-----------------------14----16------------------------------------------|
|--------------12-14s16----17---------------------------------------------|
|--------12-14------------------------------------------------------------|
|-12--15------------------------------------------------------------------|

|-12b14-12-10-12b14-12-10-12b14-12~-10--------------------|
|--------------------------------------12p10--------------|
|--------------------------------------------12-11-9----9-|
|----------------------------------------------------12---|
|---------------------------------------------------------|
|---------------------------------------------------------|

|----------------------------------8-7h8p7----7-10b12-10-|
|-----7-8-7h8p7----7-10b12--10b12----------10------------|
|-7h9-----------9----------------------------------------|
|--------------------------------------------------------|
|--------------------------------------------------------|
|--------------------------------------------------------|

|-8-7----7-----------------------10-8-7----7--------|
|-----10---8--7h8p7---10-----7-8--------10---8-10-7-|
|-------------------9----7-9------------------------|
|---------------------------------------------------|
|---------------------------------------------------|
|---------------------------------------------------|

|------------------7------------|
|-8-7h8p7---7-8h10---10-8p7---7-|
|---------9-----------------9---|
|-------------------------------|
|-------------------------------|
|-------------------------------|

[4:07]

|------7-----------------7--------|
|-8h10---10-8p7---7h8h10---10-8p7-|
|---------------9-----------------|
|---------------------------------|
|---------------------------------|
|---------------------------------|

|--------7-----------------7-----------------7----|
|-7h8h10---10-8p7---7h8h10---10-8p7---7h8h10---10-|
|-----------------9-----------------9-------------|
|-------------------------------------------------|
|-------------------------------------------------|
|-------------------------------------------------|

|-8-7----10-7-8----7------------------------------------------|
|-----10--------10---10-8-10-8p7---7--------------------------|
|--------------------------------9---9-7-------------7--------|
|----------------------------------------10-9-7-9-10---10-9-7-|
|-------------------------------------------------------------|
|-------------------------------------------------------------|

|---------------------------------------------------------7----|
|----------------------------------------------7---7h8h10---10-|
|------7-----------------------------------7h9---9-------------|
|-9-10---10-9-7----7----------------7-9-10---------------------|
|---------------10---10-9----7-9-10----------------------------|
|-------------------------10-----------------------------------|

|-8-7----10-7----7-10s12--10------------------------12----14-12-15-14-15s17-|
|-----10------10--------------12s13--12--13s15--13-----15-------------------|
|---------------------------------------------------------------------------|
|---------------------------------------------------------------------------|
|---------------------------------------------------------------------------|
|---------------------------------------------------------------------------|

|-15-14----14-15-17b19-17-15-14-----14h15p14----14--14h15p14----14-|
|-------17----------------------17-----------17--------------17----|
|------------------------------------------------------------------|
|------------------------------------------------------------------|
|------------------------------------------------------------------|
|------------------------------------------------------------------|

|-14-15-14----------14-15-14----14-17-15p14----|
|----------17-15-17----------17-------------17-|
|----------------------------------------------|
|----------------------------------------------|
|----------------------------------------------|
|----------------------------------------------|

|-14-15-14----------14-15-14----14-17-15p14----14h15p14----14-|
|----------17-15-17----------17-------------17----------17----|
|-------------------------------------------------------------|
|-------------------------------------------------------------|
|-------------------------------------------------------------|
|-------------------------------------------------------------|

|-17b19-17b19-17b19~-17b19--17-15-17b19r17b19--17-15-14-12----12-------|
|----------------------------------------------------------15----15b17-|
|----------------------------------------------------------------------|
|----------------------------------------------------------------------|
|----------------------------------------------------------------------|
|----------------------------------------------------------------------|

[4:31]

|-12-----------------------------------------------------------------------|
|----15-12-------15-12--------------------------------------12-13-12h13p12-|
|----------14-12-------14-12s11----11-------11-12-11--12-14----------------|
|-------------------------------14----12-14--------------------------------|
|--------------------------------------------------------------------------|
|--------------------------------------------------------------------------|

|------------------------------------------------------|
|------------------------------------------------------|
|-11b12r11-11b12r11-11b12~-11b12r11-----11-------11----|
|------------------------------------14----12-14----14-|
|------------------------------------------------------|
|------------------------------------------------------|

|-------------------------------------------12------------|
|-------------------------12----13-12-15-13-----15-13--12-|
|-------11----12-11-14-12----14---------------------------|
|-14-12----14---------------------------------------------|
|---------------------------------------------------------|
|---------------------------------------------------------|

|-12----------12----------12----------14b15~-14b15r14--15b17r15-|
|----15-13-12----15-13-12----15-13-12---------------------------|
|---------------------------------------------------------------|
|---------------------------------------------------------------|
|---------------------------------------------------------------|
|---------------------------------------------------------------|

|-15--14--12--------------------------------------------------------------|
|------------15-12-------15p13p12--------------------------------------12-|
|------------------14-12----------14-12s11----11-------11-12-11--11-14----|
|------------------------------------------14----12-14--------------------|
|-------------------------------------------------------------------------|
|-------------------------------------------------------------------------|

[4:59]

|---------------------------------------------|
|-15--12-----15--12-----15--12-----15--12-----|
|---------14---------14---------14---------14-|
|---------------------------------------------|
|---------------------------------------------|
|---------------------------------------------|

|------------------------------------------------------0-|
|-15--12-----15--12-----15--12-----15--12-----15-15b17---|
|---------14---------14---------14---------14------------|
|--------------------------------------------------------|
|--------------------------------------------------------|
|--------------------------------------------------------|

|--------------14b15-14--12-15b17-15--14-12-14--12----------------|
|-15b17-15--12--------------------------------------15-12---------|
|----------------------------------------------------------14--12-|
|-----------------------------------------------------------------|
|-----------------------------------------------------------------|
|-----------------------------------------------------------------|

|-----------------------------------------------------------------|
|-15-12-----------------------------------12-------15-12-------15-|
|-------14-12-11----11-------11-12-11--------14-12-------14-12----|
|----------------14----12-14----------14--------------------------|
|-----------------------------------------------------------------|
|-----------------------------------------------------------------|

|----------------------------------------------|
|-12-------15-12-------------------------------|
|----14-12-------14-12s11h12p11----11----------|
|-------------------------------14----14-12-14-|
|----------------------------------------------|
|----------------------------------------------|

|-------------------12-14-15p14p12-------14-17----14-17b19-17b19-|
|----------12-13-15----------------15-17-------17----------------|
|-11-12-14-------------------------------------------------------|
|----------------------------------------------------------------|
|----------------------------------------------------------------|
|----------------------------------------------------------------|

|-17b19-17b19--17-15-14----14-----------------------15b17--15-12-15b17--15-|
|-----------------------17----17-15-14----14-17b19~------------------------|
|--------------------------------------16----------------------------------|
|--------------------------------------------------------------------------|
|--------------------------------------------------------------------------|
|--------------------------------------------------------------------------|

[5:29]

|-12----12--------12-------------------------------------------------------|
|----15----15b17-----15p12-------15p12-------------------------------------|
|--------------------------14p12-------14-11h12p11----11----------11-12h14-|
|--------------------------------------------------14----14-12-14----------|
|--------------------------------------------------------------------------|
|--------------------------------------------------------------------------|

|-12-------------------------------------------------|
|----15-12----12--12--12--12--12--12--12--12--12--12-|
|----------14----------------------------------------|
|----------------------------------------------------|
|----------------------------------------------------|
|----------------------------------------------------|

|--------------------------------------------------|
|-12-------12--------12-12-------------------------|
|----14b16----14b16--------14b16-14b16-14b16-14b16-|
|--------------------------------------------------|
|--------------------------------------------------|
|--------------------------------------------------|

[5:44]

|--------------------------13-------------------12--------------|
|-12----12-15--12-15b17~-----------15--15b17~------15p12-15b17~-|
|----14------------------------15-------------------------------|
|---------------------------------------------------------------|
|---------------------------------------------------------------|
|---------------------------------------------------------------|

|----------------------13-------------------14--14b16~-|
|-15b17-15b17-15b17~-----------15--15b17~--------------|
|--------------------------15--------------------------|
|------------------------------------------------------|
|------------------------------------------------------|
|------------------------------------------------------|

|-17--17b19-17b19-17b19~---20--17----------20r19-19----17s15-17-14-|
|----------------------------------18--20--------------------------|
|------------------------------------------------------------------|
|------------------------------------------------------------------|
|------------------------------------------------------------------|
|------------------------------------------------------------------|

|-14-15-17-17b19--17b19--17b19--17b19~---20--17----------20r19--19-|
|------------------------------------------------18--20------------|
|------------------------------------------------------------------|
|------------------------------------------------------------------|
|------------------------------------------------------------------|
|------------------------------------------------------------------|

|-17s15-15s14h15p14----14-------14----------------14----------------14-|
|-------------------17----17p15----17-15-14-15-17----17-15-14-15-17----|
|----------------------------------------------------------------------|
|----------------------------------------------------------------------|
|----------------------------------------------------------------------|
|----------------------------------------------------------------------|

|----------------12----------------------------------------------------|
|-17-15-14-15-17----15-12h14p12----------------------------------------|
|-------------------------------14-12s11----11-14-12p11----11-14-12-11-|
|----------------------------------------14-------------14-------------|
|----------------------------------------------------------------------|
|----------------------------------------------------------------------|

|------------------------------------------------------------|
|---------------------------------------------------12-14-15-|
|------------------------------------------11-12-14----------|
|-12-11-12-11-14-12-11-----------11-12--14-------------------|
|----------------------14-12-14------------------------------|
|------------------------------------------------------------|

Acordes: 
Fmaj7: xx3210
Cmaj7: x32000
E: 022100
F: 133211
G: 355433
C: x32010
Am: x02210
C6: x32210
Asus2: x02200
Bsus2: x24422
Estrofa 1:
Fmaj7
Una palabra
Cmaj7
dame una palabra
Fmaj7
una palabra
Cmaj7
solo una palabra
Fmaj7
dame suave brisa
Cmaj7
brisa de la playa
Fmaj7           E
dame una palabra 

Verso:
F
200 años
  G         C  E
¿de qué sirvió
F                G       C   Am E 
haber cruzado a nado la mar? 

Estrofa 2:
C6
Una palabra, 
Cmaj7
solo una palabra
C6
dame la brisa
Cmaj7
dame toda brisa
C6
suave junco, 
Cmaj7
junco de la orilla
C6              E 
dame una palabra

Verso:
(igual)
200 años
¿de qué sirvió
haber cruzado a nado la mar?

Intermedio sobre: 
Asus2 - Bsus2 (x8)

Corte:
e|----------------------------(12)-|
b|----------------------------(12)-|
g|----------------------------(12)-|
d|-2---2-0-------2------------(12)-|
a|-3-----2---3-2-0----3-2-----(12)-|
E|-------3---1-----3--1-0----------|

Verso:
(igual)
200 años
¿de qué sirvió
haber cruzado a nado la mar?

Fin: Asus2 - Bsus2

 

Acordes:
A: x07650
Asus4: x07750
E/A: x02100
Esus4/A: x02200
D: xx0232
Dsus4: xx0233
E: 022100
Esus4: 022200
C#7: x4342x
Bm: x24432
C/G: 332010
D9add11/A: 554030
Intro:
A - Asus4 | E/A - Esus4/A | D - Dsus4 | E - Esus4 |

Estrofa 1:
 A        Asus4   A
Hoy tu polle   -  ra,
 E/A     Esus4/A  E/A
gira al vien   -  to
  D       Dsus4 D     E Esus4 E
quiero verte   bai-lar
 A       Asus4   A
entre la gen -  te,
 E/A     Esus4/A E/A 
entre la gen -   te,
   D     Dsus4 D   E Esus4 C#7
quiero verte   bai-lar

Verso:
     Bm        A  
No importa tu nombre
              Esus4 A
si me puedes contestar
     Bm         A
son tantos tus sueños
           C/G
que ves el cielo
    D9add11/A
mientras te veo bailar

Repite intro

Estrofa 2:
Hoy tu sonrisa es limpia y gira
quiero verte bailar
entre la gente
entre la gente 
quiero verte bailar

Verso:
(igual)
no importa tu nombre
si me puedes contestar
son tantos tus sueños
que ves el cielo
mientras te veo bailar

Repite intro

Fin: D9add11

Acordes:
C#/B: x2x212
A: x02220
Asus4: x02230
C#m7: x46454
F#m7: 242222
D6/9: x54454
Bm7: x24232
F: 1332xx
G: 3554xx
A: 5776xx
Bm7(II): 797777
C#6/D#: x66666
B5: 799xxx
Bm7(b13): x25232
F#m: 244222
Cmaj7/G: 332000
C#7: x46464

Estrofa 1:
C#/B                              [A - Asus4]
 Ahí va el Capitán Beto por el espacio,
C#/B                              [A - Asus4] 
 con su nave de fibra hecha en Haedo
C#m7         F#m7
 Ayer colectivero, 
C#m7              F#m7       D6/9
 hoy amo entre los amos del aire 

Estrofa 2:
(igual)
Ya lleva quince años en su periplo
su equipo es tan precario como su destino. 
Sin embargo un anillo extraño
ahuyenta sus peligros en el cosmos

Riff:
E|----------------------|-------------------------|
B|----------------------|-------------------------|
G|----------------------|-------------------------|
D|----------------------|-------------------------|
A|-----6-7-4-6---4------|-----6-7-4-6---4---------|
E|-0-5---------5---5-7--|-0-5---------5---5-7---0-|

Estrofa 3:
(igual)
Ahí va el Capitán Beto por el espacio, 
la foto de Carlitos sobre el comando
y un banderín de River Plate
y la triste estampita de un santo. 

Verso:
F#m7     Bm7      C#m7       F      G      A
¿Dónde está el lugar al que todos llaman cielo? 
           Bm7        C#m7  
Si nadie viene hasta aquí
     F      G     A       E6/9    Bm7(II)  C#6/D#  B5
a cebarme unos amargos como en mi viejo umbral
          C#m7   Bm7(b13)     F#m             Cmaj7/G C#7 F#m
¿Por qué habré venido hasta aquí, si no puedo más de soledad? 
           Cmaj7/G  C#7  A
Ya no puedo más de soledad 

Estrofa 4:
(igual)
Su anillo lo inmuniza contra el peligro, 
pero no lo protege de la tristeza. 
Surcando la galaxia del Hombre, 
ahí va el Capitán Beto, el errante. 

Verso:
(igual)
¿Dónde habrá una ciudad en la que alguien silbe un tango? 
¿Dónde están, dónde están
los camiones de basura, mi vieja y el café? 
Si esto sigue así como así, ni una triste sombra quedará, 
ni una triste sombra quedará. 

Estrofa 5:
(igual)
Ahí va el Capitán Beto por el espacio, 
regando los malvones de su cabina. 
Sín brújula y sin radio, 
jamás podrá volver a la Tierra

Repite riff

Final:
C#/B                                [A - Asus4]
  Tardaron muchos años hasta encontrarlo. 
C#/B                          A         C#m7     Bm7
El anillo de Beto llevaba inscripto un signo del alma

Acordes:
Em7: 022030
Am7: x02010
Bm7: x24232
Cmaj7/G: 332000
Estrofa 1:
Em7         Am7        Bm7    Cmaj7/G
 El vino entibia sueños al jadear 
Em7         Am7        Bm7     Cmaj7/G
 Desde su boca de verdeado dulzor 
Em7           Am7          Bm7     Cmaj7/G
 Y entre los libros de la buena memoria 
Em7           Am7          Bm7          Cmaj7/G          
 Se queda oyendo como un ciego frente al mar

Verso:
Bm7         Em7
 Mi voz le llegará 
Bm7          Em7
 Mi boca también
Bm7          Em7
 Tal vez le confiaré
     Am7       Bm7        Cmaj7/G
que eras el vestigio del futuro. 

Estrofa 2:
(igual)
Rojas y verdes luces del amor 
prestidigitan bajo un halo de rouge 
Que sombra extraña te ocultó de mi guiño 
que nunca oiste la hojarasca crepitar?

Verso:
(igual)
Pues yo te escribiré 
Yo te haré llorar 
Mi boca besará 
toda la ternura de tu acuario. 

Estrofa 2:
(igual)
Más si la luna enrojeciera en sed 
O las impalas recorrieran tu estanque 
No volverías a triunfar en tu alma? 
Yo sé que harías largos viajes por llegar. 

Verso:
(igual)
Parado estoy aquí 
Esperándote 
Todo se oscureció 
Ya no sé si el mar descansará

Solo:
  Em7  Am7             Bm7    Cmaj7/G
e|--------------------------------|
b|--------------------------------|
g|-9/11-12--12h14-12--14-16-16--9-|
d|--------------------------------|
a|--------------------------------|
E|--------------------------------|

Estrofa 3:
(igual)
Habrá crecido un tallo en el nogal 
La luz habrá tiznado gente sin fe 
Esta botella se ha vaciado también 
Que ni los sueños se cobijan del rumor. 

Verso:
(igual)
Licor no vuelvas ya 
Deja de reir 
No es necesario más 
Ya se ven los tigres en la lluvia 

Acordes:
(en DADGBE)
Dmaj7/F#: xx4222
Em5: xx2400
Dsus4: 055033
D: 054032
G/D: 000788
Dm6aug/A: 000466
Asus4: 000780
Fmaj713: 000560
Asus4/D: 000755
A/D: 000655
G/D: 000433
Gm/D: 000333

Intro y fig. a:
            Dmaj7/F#  Em5
e|---------|--2--0--2--0-|--||
b|---------|--2--0--2--0-|--||
g|---------|--2--4--2--4-|--||
d|---------|--4--2--4--2-|x2||
a|---------|-------------|--||
D|-0-4-2--0|-------------|--||

Estrofa 1:
(sobre fig. a)
Las golondrinas de Plaza de Mayo
observan la gente desde el mismo árbol
Dsus4             D
Y al llegar el verano,
             Gsus4/D           Dm6aug/A
cuando la ciudad se cubre flores,
             Dmaj7/F# Em5
vienen y van

Estrofa 2:
(sobre fig. a)
Vuelan y vuelan las golondrinas,
las golondrinas de Plaza de Mayo.

Puente: Asus4 Fmaj13  - Asus4/D A/D - G/D Gm/D (x2)

Estrofa 3:
(igual)
Se van en invierno,
vuelven en verano 
las golondrinas de Plaza de Mayo
Y si las observas 
comprenderás que solo vuelan en libertad

Fin: Puente