Acordes:

E/A: x01413120
Dadd9: x01211100
Dadd9*: x012111012
Amaj7/9: x09999
D6: x07777
Dmaj7: x07779
Am7: x05550
A6sus2: x04450
A7/9: 545000
A5: 57xxxx
C#5: x46xxx
D5: x57xxx
F9: x87888
Em: x79000
G6/D: 10109000
Cmaj7: 8109000
Badd11: 799800
C: 81010988
B: 799877
D: 101212111010
Badd11: 668766
B9: x21220
Dm11/Eb: 111010101010
Dadd11: 101012111010
Cadd11: 8810988
Badd11: 779877
D9: x54555
A: x07650
A9: x07657
Badd9: x09870
Badd11: x098711
Estrofa 1;
E/A               Dadd9    Dadd9*
 Todo el mundo contento está
Amaj7/9          D6          Dmaj7
 los recuerdos cesaron al fin
      Am7      A6sus2          A7/9  A5 C#5 
Ya se ven los recreos entre el sol
  D5    F9
esperan  
          Em           G6/D
a que el viento sople fuerte
       Cmaj7    Badd11
con su boca marfil
 C    B C B   C B   C  B  C  B  C    D
y el diluvio caiga contemplándote - eee

Intermedio:
e|-----||--------------||--||--------------------------------|--|
b|-----||--------------||--||--------------------------------|--|
g|-----||--------------||--||--------------------------------|--|
d|-----||--------------||x4||--------------------------------|x2|
a|-0-0-||-0h2h4--0-0-0-||--||-0h2h4-0-0h2h4-0-0h2h4-0--0-0-0-|--|
E|-----||--------------||--||--------------------------------|--|

Estrofa 2:
(igual)
Con el río la luna oye, 
los claroscuros esconden perlas y es así
que desde el cuerpo del volcán
ya muerto, 
los indígenas preparan otro rayo láser
para que el diluvio ya jamás los seque. 

Repite intermedio (x1)

Puente:

Fill 1:
e|------------------------------------|
b|------------------------------------|
g|------------------------------------|
d|--2---9--6--9--6--9--6-6------------|
a|--4---7--4--7--4--7--4-4--0h2-0-2-0-|
E|------------------------------------|

Badd11
 Y en qué ternura están
B9                       (fill 1)
 aquellos ignorados que se duermen
Badd11               B9
 Y tanto como para no ver
                         (fill 1)
al menos sin ser vista: una reina

Dm11/Eb Dadd11 Cadd11 Badd11

Fill 2:
e|----------------------|
b|----------------------|
g|----------------------|
d|-5--5--5--5--5-5--7-7-|
a|-3--0--3--0--3-0--5-5-|
E|----------------------|

            Am7
Pero ahora bien
        A6sus2  F9                D9
Puede usted mil veces golpear en sueños
   (fill 2)
que puertas del diluvio no no hay

Intermedio (x1) 

A - A9  Badd11* - Badd9 (x16)

Sigue en parte 2

Acordes:
C#m7: 91199129
Amaj7(b5): xx789x
Cmaj7(b5): xx101112x
A: 577655
E7(#9): x7678x
G#: 466544
C#maj7: x43111
Cm: 81010888
F#maj7: x98666
Bbm: 688666
F: 133211
Fmaj7: x87555
B: 799877
E: 022100
A: 577655
C#m7: x46454
G#m7: 464474
F#m7: 242252
Intro:
e||----------------|--||----------------|--||
b||----------------|--||----------------|--||
g||----------------|--||----------------|--||
d||--6-5-4---------|x2||--3-2-1---------|x2||
a||--------1h2h3---|--||--------0h1h2---|--||
E||4------------3-2|--||3------------3-2|--||

e||----------------|--||----------------|--||
b||----------------|--||----------------|--||
g||----------------|--||----------------|--||
d||-6-5-4-3--------|x2||-3-2-1-0--------|x2||
a||--------1h2h3---|--||--------0h1h2---|--||
E||4------------3-2|--||3------------3-2|--||

C#m7 - Fill - Amaj7(b5) - Cmaj7(b5)

Fill:
e|-----------|
b|-----------|
g|-----------|
d|-----9-9/7-|
a|9/11-------|
E|-----------|

Estrofa 1:

C#m7 - Fill - Amaj7(b5) - Cmaj7(b5) 

    C#m7      Fill  - Amaj7(b5) - Cmaj7(b5)
Jugo de lúcuma
     C#m7        Fill - Amaj7(b5) - Cmaj7(b5)
chorreando en mí,
       C#m7        Fill - Amaj7(b5) - Cmaj7(b5) 
patas de mueble de bronce
   C#m7   Fill - Amaj7(b5) - Cmaj7(b5)
caminan ya

Verso:
A         E7(#9)       G#
Ardiendo están, apenas solas
      C#maj7
las esferas,
    Cm        F#maj7 
esperando por ellas

F - Bbm - Cm

Intermedio:
e|-------------|-9---9-9--|--||
b|-12---13/12--|-7---9-9--|--||
g|-11---12/11--|-7---9-9--|--||
d|-10---11/10--|-7---9-9--|x4||
a|-------------|----------|--||
E|-------------|----------|--||

Estrofa 2:
(igual)
Lorena duerme, 
perdió los zapatos, 
manchas de rouge y sangre
impiden verla

Verso:
(igual)
Arcos de luces de aquella noche
en la que bebí 
de su cuerpo de lúcuma

Repite intermedio

Solo:

e|----------------|---------|-----------|-----------------|-----------|
b|----------------|---------|-----------|---------------9-|---9-------|
g|----------------|---------|-----------|-------------9---|-9---9-----|
d|-------10-11-13-|-15-11-15|-11--------|-------10-11-----|-------9---|
a|-11-13----------|---------|----11-9---|-11-13-----------|---------12|
E|----------------|---------|-----------|-----------------|-----------|

e|----------|------------------------------|-------------9-11----9------14|
b|--------12|-12----12----10---------------|-----9-10-12------12--10-9----|
g|---9-12---|----12----12---12-11----------|-9-11---------------------11--|
d|-11-------|----------------------9-11-9-8|------------------------------|
a|12--------|------------------------------|------------------------------|
E|----------|------------------------------|------------------------------|

e|-------------|------------------4-------------|
b|-------------|-----------------------5----7---|
g|-------------|-------4-6-8-8--6---6---------4-|
d|-9-----------|-4-4h6--------------------------|
a|--11------9--|--------------------------------|
E|-----12-9----|--------------------------------|


 Fmaj7
Voy a extrañar
B          E
 una canción
A           C#m7
 Y ninguna más
                       G#m7
Ya que a esta la encontré
           F#m7
en tu dormitorio

Fin:
e|-------9-12-9-12b14-9-----------------|--|-------9-12-9-12b14-9---------|
b|9-10-12--------------9-----9----------|--|9-10-12--------------9-----9--|
g|----------------------11b13-11p9-11b13|--|----------------------11b13--9|
d|--------------------------------------|x7|------------------------------|
a|--------------------------------------|--|------------------------------|
E|--------------------------------------|--|------------------------------|