Acordes:
Dadd9/A: x|0|12|11|10|0
Amaj7: 07999
D6/A: x00777
F#minv: x9|11|11|10|9
Bm: 799777
A5: 577xxx
B5: 799xxx
A: 577655
F#m: 244222
E: 022100
E6: 022120
F: 133211
C: x32010
G: 320033
G/B: x2003x
Am: x02210
Am/G: 302210
Fmaj7/A: x03210
D5: x577xx 
E5: x799xx
F5: x81010x
G5: x101212x
G6/A: x05430
D#/A: x0131211x
Bb/A: x0876x
B/A: x0987x
C/A: x1098x
Ainv: x0765x
A7sus4: x02030
Dm6/A: x0343x
Em6/A: x5450

Estrofa 1:

Fill:
e|-7--9p7------9p7-----------|
B|-7------10p7-----10p7------|
G|-7--------------------9-7--|
D|-0------------------------9|
A|-0-------------------------|
E|---------------------------|

Dadd9/A    Amaj7     D6/A  (fill)
    Aguas claras de olimpos 
Dadd9/A     F#minv Bm    A5 A5 - B5 B5
    que el adios aguarda
Dadd9/A    Amaj7    Bm/D (fill)  
    Los caballos del día 
Dadd9/A     F#m    Bm
    que el adios aguarda
A                   Bm  A       F#m             E - E6
  Los caballos del día sudan de golpe frente a mí 
     F     C  G C      C G/B Am   
Temblando de carreras  ah ah ah
     F     C  G C      C G/B Am   
Temblando de carreras  ah ah ah
     F     C  G C      C G/B Am Am Am/G Fmaj7/A 
Temblando de carreras  ah ah ah ah  ah  ah

Verso:
A5 A5 A5         D5 E5 F5  G5    A5 A5 A5
        Sombras inú-ti-les del parque 
           D5 E5  F5 G5    A5 A5 A5
Los que llama-ba no aparecieron 
       D5 E5  F5 G5 A5 A5 A5
Todo gigante muere cansado
            G5
de que lo observen los de afuera 

Estrofa 2:
Hoy el viento baila así 
como junto al fuego 
y los luceros enormes 
como junto al fuego 
los luceros enormes toda la noche gritarán 
tentando a la colina ah ah ah
tentando a la colina ah ah ah
tentando a la colina ah ah ah


Instrumental:
G6/A Dadd9/A (x3) D#/A Dadd9/A (x2) Bb/A
Fmaj7/A B/A (x3) C/A B/A (x2) Ainv

Intermedio: 
A7sus4                  Fmaj7/A    Am  Dm6/A  Em6/A    Am  Aminv
    ¿Cómo hacer que este valle de hue - ee  -  ee  -  cos 
A7sus4             Fmaj7/A
    no suba más por mí? 
   Am    Dm6/A Em6/A  Am   Aminv
No ten - go    más    Dios 
   Am    Dm6/A Em6/A  Am   Aminv
No ten - go    más    Dios
   Am    Dm6/A Em6/A  Am    Am Dm6/A Em6/A (x2) Am
No ten - go    más    Dios

Estrofa 2:
(igual)
Unas ramas nacidas 
del viejo monte 
Están siempre brotando 
del viejo monte 
Están siempre brotando yo ya no las puedo controlar 
cruzando la tormenta ah ah ah
cruzando la tormenta ah ah ah
cruzando la tormenta ah ah ah

Verso:
(igual)
Sombras inútiles del parque
los que llamaban no aparecieron 
todo gigante termina exhausto
de que lo observen los de afuera

Estrofa 3:
(igual)
Miro ya los relojes 
entre la neblina 
y las luces primeras 
entre la neblina 
y las luces primeras ya empezaron a desperezar 
gorriones en la leña ah ah ah
gorriones en la leña ah ah ah
gorriones en la leña ah ah ah

Repite instrumental intermedio

Verso:
(igual)
Sombras inútiles del parque
los que llamaban no aparecieron 
todo gigante termina exhausto
de que lo observen los de afuera

Intermedio:
(igual)
¿Cómo hacer que este valle de truenos 
no suba más por mí? 
No tengo más Dios
no tengo más dios
no tengo más dios

Verso: 
(igual)
Sombras inútiles las de este parque 
los que llamaba no aparecieron 
Todo gigante muere cansado de devorar a los de abajo

Acordes (sugeridos para guitarra)
Am: 577555
G: 355433
Fm: 133111
Em: 022000
C: x32010
Db9: x46644
Cm: x35563
Gbaug: xx4332
Db/F: 1xx121
Estrofa 1:
Am                G
En el agua del estanque 
Fm                   Em   C
flotan restos de una cuna 
C#9                 Cm
ya la bomba ya estalló
               Gbaug    C#/F 
la guerra del final, aquí

Estrofa 2:
(igual)
Por entre los edificios 
andan mil tormentos sueltos
Hoy la luna prosiguió 
temblando por quedar así 

Acordes:
G: 320033
Gsus4: 320013
D/F#: 200232
C/G: 332010
Am: x02210
Bm: x24432
Bm/Bb: x14432
A: 577655
F#: 244322
Einv: x76454
F#m: 244222
E/G#: 4xx454
Ebadd9: x6506x
Cmaj7:  x3245x
Dm: x57765
Intro: 
                          G Gsus4                               G Gsus4
e|----------------------3-3-3-3-|--||-3-3-3-||--------0-------3-3-3-3-|--||
b|0-0h1p0---------------3-0-1-0-|--||-0-1-0-||--0-1-3---3-1-0-3-0-1-0-|--||
g|--------0h2p0---------0-0-0-0-|--||-0-0-0-||----------------0-0-0-0-|x2||
d|--------------0h2p0---0-0-0-0-|x3||-0-0-0-||----------------0-0-0-0-|--||
a|----------------------2-2-2-2-|--||-2-2-2-||----0-2-3-2-0---2-2-2-2-|--||
E|--------------------3-3-3-3-3-|--||-3-3-3-||--3-----------3-3-3-3-3-|--||

                                           G D/F# C/G               G
e|-2-3-5-5-3-2-0--|-2-3-3-2-0--|-----0-----3--2---0-|-----7-7-8h7-|------||
b|----------------|-----------0|-1-3---3-1-3--3---1-|----8--------|----3-||
g|----------------|------------|-----------0--2---0-|--7----------|---0--||
d|-0-2-4-4-2-0----|-0-2-2-0----|-----------0--0---2-|-0-----------|--0---||
a|-------------3--|---------3--|-0-2-3-2-0-2--0---3-|-------------|-2----||
E|----------------|-----------3|-----------3--2---3-|-------------|3-----||


Estrofa 1:
Arreglo:
   G Am G/B G/B Am G       G
e|-------------------|--||-3-||
b|-0--1--3--3--1--0--|--||-3-||
g|-------------------|--||-0-||
d|-------------------|x2||-0-||
a|----0--2--2--0-----|--||-2-||
E|-3--------------3--|--||-3-||

(sobre arreglo)
G  Am G/B  Am   G     
La cereza del zar
G  Am G/B  Am   G   G
Impulsada por él
Bm           Bm/Bb         A       (G)  F#  
  al caer el sol el zar miro las platas de su luna
Bm           C#m
loco por las calles va
A             Einv   F#m E  
buscando a la cereza
D/F#       E/G# 
sombras de nada
Bm           C#m
lo salude un rayo
A            Ebadd9 Cmaj7 Ebadd9 Cmaj7
el viento da pavor y      nie -  bla
    Dm          Am
las lajas de la calle
       G   D/F#  C/G  G  G - Gsus4 
y esta vo - la - du - ra
G  D/F# C/G G   G - Gsus4
de unos niños
G  D/F# C/G G  D/F# C/G
al ver  la  ce re   za 
   G
caer.

Intro:

Riff:
e|------------------|--||
b|------------------|--||
g|-9--------------9-|--||
d|-9--9--8---8--7---|x4||
a|-7----------------|--||
E|------------------|--||
PM    ...........

Estrofa 1:
(sobre riff)
Hoy aquí en la selva estoy 
El rumor me llega 
Veo nacer una sombra de pie 
lejos está el sol de siempre 
y la sombra dice: 

Verso:
E5
suave suave nena 
G5
yo te quiero mostrar 
C5
luces de la noche 
D5
¡Ah! 

Instrumental sobre:
Riff
Estrofa - Verso (x2)
Riff


Estrofa 2:
(igual)
Nunca fue igual esta jungla de hoy 
El calor, una bola de piedra 
Veo clamar una sombra 
Debo tener a mis huesos 

Verso:
(igual)
Lejos de la sombra, en algún lugar danzan 
ceremonias vudúes 

Fin: Riff

Acordes:
E5: 022xxx 
F5: 133xxx 
F#5: 244xxx 
G5: 355xxx 
G#5: 466xxx 
A5: 577xxx 
A#5: 688xxx 
B5: 799xxx 
C: 81010xxx 
C#5: 91111xxx 
D5: 101212xxx
D: x57775
Bb: x13331
F#: 244322
G: 355433
A: 577655
Em: x79987

 

Intro:
e|---------10-10-----10-10-10-10-10---------10-10-10------------------|
b|----10----------10---------------------10--------------10-----------|
g|-12b14-------12b14------------------12b14-----------12b14bbbbbbb12--|
D|--------------------------------------------------------------------|
A|--------------------------------------------------------------------|
E|--------------------------------------------------------------------|

E5 - F5 - F#5 - G5 - G#5 - A5 - A#5 - B5 - C5 - C#5   -  D5

Sigue: 
Riff 1:
e|---------------------------|--||--------|
b|-----------7-9-7--9/11-9-7-|--||--------|
g|-----------7-9-7--9/11-9-7-|--||--------|
D|---------------------------|x4||--------|
A|-8-9-10--------------------|--||-8-9-10-|
E|---------------------------|--||--------|
Estrofa 1:
 D         Bb
  ¡Hola, pequeño ser!
F#                G           A        D
  si tu mente se viaja tienes que parar
               Bb
No, no, no, pequeño ser
F#                 G           A        
  si tu mente se viaja tienes que parar
Em               A          G            D
  y aprender a vivir de lo que vos pensás

(Riff 1)

Estrofa 2:
(igual)
¡Hola a todos!, pequeño ser
lo que amaba en vos ya no lo tengo más.
No, no, no, pequeño ser
si tu mente se viaja tienes que parar
y aprender a vivir de lo que vos pensás.

Solo: G D (x2)

Corte:
  D5 C5 Bb5  A5 G5 F#5       (Riff 2)         D5    C5 Bb5 A5 G5 F#5 
e|--------------------|---------------------|----------------------|
b|--------------------|---------------------|----------------------|
g|--------------------|---------------------|----------------------|
D|-7--5--3------------|---------------------|--7-7--5--3-----------|
A|-5--3--1----7--5--4-|---2-3-4-5---4-5-6-7-|--5-5--3--1---7--5--4-|
E|------------5--3--2-|-3---------5---------|--------------5--3--2-|

Solo: G A (sobre riff 2)

Puente: 
  A5 G5 F5 E5  D5            F5 E5
e|--------------------------------|--||
b|10-8--6--5---3-3-3-3-3-3---6--5-|--||
g|9--7--5--4---2-2-2-2-2-2---5--4-|x6||
d|7--5--3--2---0-0-0-0-0-0---3--2-|--||
a|--------------------------------|--||
E|--------------------------------|--||

    A5    G5    F5      E5        D5 - F5 E5
Se acerca ya la sombra del cuervo
      A5     G5     F5      E5      D5 - F5 E5 
en la mesa está la araña de fiebre
  A5    G5   F5     E5               D5 - F5 E5
nadie quiere ya las flores del campo
        A5     G5     F5     E5        D5 - F5 E5
y en la tumba estás al lado del charco
              A5
y no podés más

Fin:
e|-------------------------------------------------------------------|
b|-------------------------------------------------------------------|
g|-------------------------------------------------------------------|
D|-------------------------------------------------------------------|
A|----3-5------------------------3-5---------------------------7-8---|
E|5-5-----3--1-0-1-0-1-0-1/5--5-5-----3--1-0-1-0-1-0-1-S-8--8-8----7-|

e|-----------------------------------------------|
b|-----------------------------------------------|
g|-----------------------------------------------|
D|-----------------------------------------------|
A|-----------------------7-8---------------------|
E|5-4-5-4-5-4-5-S-8--8-8-----7--5-4-5-4-5-4-5-5--|

Acordes:
G: 355433
C: 35553
G(VII): xxx787
Bb: x13331
Em: 022000
D5: x577xx
Db5: x466xx
C5: x355xx
Intro:
e|------------|------------------------|----------------|------------|
b|----7------8|-------7----------------|----------------|----7------8|
g|9b11b9--7---|-7-9b11b9---------------|-9b11-11-11-b9--|9b11b9--7---|
D|------------|----------9-9-9-10-9----|---------------8|------------|
A|------------|---------------------10-|----------------|------------|
E|------------|------------------------|----------------|------------|

Estrofa 1:
G (sobre riff de intro)
Nena boba 
no sabes bailar 
nena boba 
no sabes amar 

C
Yo te chisto 
te quiero seguir 
G(VII)
y vos me respondes: "Esto no es para mi" 

Puente:
Bb   
 Entonces quiero 
   G               Em
cortarme las venas,
  C
 ¿Tal vez tomaste 
      A 
demasiado mucho sol 
        D    D5-Db5-C5
en la arena? 

Estrofa 2:
(igual)
Nena boba 
no sabes bailar 
nena boba 
no sabes amar 
yo te entrego mi rosa 
más negra 
Nena nena boba 
era verde turquesa 

Puente:
(igual)
Yo ya no quiero 
perderme en abismos 
Al fin y al cabo con las 
bobas siempre pasa lo mismo 

Solo: sobre Estrofa+Puente

Estrofa 3:
(igual)
Nena boba 
no sabes bailar 
nena boba 
no sabes amar 
yo te entrego mi rosa 
más negra 
Nena nena boba 
era verde turquesa 

Puente:
(igual)
Yo ya no quiero 
perderme en abismos 
Al fin y al cabo con las 
bobas siempre pasa lo mismo 

Fin sobre: G

Acordes:
Em: 022000
D: xx0232
b: x799xx
Eb5: x688xx
D5: x577xx
C5: x355xx
Db5: x466xx
Bb5: x133xx
Gb5: 244xxx

Intro:  
         Em             D         Em
e|-------------------|-----------|-----|--||
b|-------------------|-----------|-----|--||
g|-9-11-12--12-11-9-7|-7--9-9-11-|--9--|--||
d|-9-11-12--12-11-9-7|-7--9-9-11-|--9--|x4||
a|-7-9--10--10-9--7-5|-5--7-7/9--|--7--|--||
E|-------------------|-----------|-----|--||

Estrofa 1:
(sobre riff de intro)
Em            D       Em
Amame peteribi, ama siempre
Em            D       Em
Amame peteribi, ama siempre
Em            D       Em
Amame peteribi, ama siempre
Em            D       Em
Amame peteribi, ama siempre
E5      Eb5            D5       Eb5      E5 (Riff 1)  
de esta manera ninguna chica te podria amar

Repite: 
E5 Eb5 D5 Eb5 E5 (Riff)  

Riff:
e|----------------------------|
b|--------------3----3v-/7vvv-|
g|-----------2----4-----------|
d|-2-2-2-2-5------------------|
a|----------------------------|
E|----------------------------|

Corte:
Riff - E5 Eb5 D5 Eb5 E5 - Riff

Estrofa 2:
(igual)
Amame peterebi, ama siempre
Amame peterebi, ama siempre
Amame peterebi, ama siempre
Amame peterebi, ama siempre
de esta manera ninguna chica te podría amar
piensalo bien, amigo 

Instrumental:
e|---------------------------------|----------------------|--||
b|---------------------------------|----------------------|--||
g|---------------------------------|----------------------|--||
d|---------------------------------|7p5---7p5--7p5--7-7/9-|x4||
a|-7-7-7-7-7-7-7-7-7-7-7-7-7-7-7-7-|----7----7----7-------|--||
E|-0-0-0-0-0-0-0-0-0-0-0-0-0-0-0-0-|----------------------|--||
 
C5 -  Bb5-Gb5 Bb5-Gb5 (x4)
C5 Db5 - C5 Db5 - C5 Db5 (x4)
D5 - Eb5

Solo sobre: E5 D5

Estrofa 3:
(igual)
Amame peterebi, ama siempre
Amame peterebi, ama siempre
Amame peterebi, ama siempre
Amame peterebi, ama siempre
de esta manera ninguna chica te podría amar

(Repite instrumental)

Fin: fade out

Acordes:
Dm7: x57565
Em7: x79787
D/F#: 200232
C/G: 332010
Bb: x13331
G: 320003
F#m7: 242252
Intro:
(Fig. A)
    A5       Am  Am/G    D/A  C/A       G Bm7/F# Am7/E            
e|--0-0-0-|------0----|-----------|---------------|
b|--0-0-0-|------1----|--7----5---|----8-----7--5-|
g|--9-9-9-|--2---2----|--7----5---|----0-----7--5-|
d|--7-7-7-|--2---2----|--7----5---|----9-----7--5-|
a|--0-0-0-|--0---0----|--0----0---|----10----9--7-|
E|--------|------3----|-----------|---------------|
    ^ V ^
(Fig. B)
    Am      Am Am/G      D/A  C/A     G   Bm7/F# Am7/E 
e|--0-----|------0----|-----------|---------------|
b|--1-----|------1----|--7----5---|----8-----7--5-|
g|--2-----|--2---2----|--7----5---|----0-----7--5-|
d|--2-----|--2---2----|--7----5---|----9-----7--5-|
a|--0-----|--0---0----|--0----0---|----10----9--7-|
E|--------|------3----|-----------|---------------|

Estrofa 1:
(sobre Fig. B)
Am      Am/G   D/A  C/A   G    Bm7/F#  Am7/E
 Es mi espíritu que va   lle  -  va   - me 
Am     Am/G        D/A   C/A   G       Bm7/F#  Am7/E
Es mi mente que al sil - bar me en  -  can - ta 
Dm7                 Em7
 Hay un perro que me ladra 
                       (Fig. A+Fig. B) 
y está afuera desde aquí 

Estrofa 2:
(igual)
Es mi espíritu que da mil vueltas 
y se enreda en el jardín llevame 
Es así como mi abuelo 
se complace desde allá
 
Verso:
D/F#            C/G  Bb             Am   G
  mi mente ya entendió por qué está sola 
D/F#            C/G  Bb             Am   G
 mi mente ya entendió por qué está sola 
D/F#           (C#) (B)  (A) (G)  F#m7
  Por qué mi espí - ri - tu  se fue 

Intermedio:
   Dm      Dm/F        C     Bb
e|----------------|------------------|--||
b|------3-----3---|----------------3-|--||
g|---2------2-----|-------0------3---|--||
d|-0------3-----2-|----2-------3-----|x6|| (fade out)
a|----------------|-3--------1-------|--||
E|----------------|------------------|--||

Repite intro: Fig B - Fig A - Fig B

Estrofa 3:
(igual)
Es mi espíritu que va, llevame 
es mi mente que al silbar, me encanta. 
Es asi que ladra un perro 
y es que ladra desde allá. 

Puente:
D/F#          C/G Bb                (Fig. B x2)
 Mi mente ya está sola con la noche 

Verso:
D/F#           C/G Bb             Am     G
 mi mente ya entendió por qué está sola 
D/F#         (C#) (B) (A) (G) F#m7
 Por qué mi espí - ri - tu se fue 

Fin: Intermedio y fade out