Afinada aprox. en A=432hz. 

Acordes:
D/F#: 200232
E/G#: 400454
A: x07655 | x02220
Gm7: xx5766
G: 320003
Dadd9/A: x02232
Gmaj7: x109777
Cmaj7/G: 322000
D: x00232
Em7: 022033
Am7: x02013
D/F#: xx4232
Gmaj7(II): xx5432
F#: 244322
F6/9: 103233
Intro:
     D/F#         E/G#           A          Gm7       G                 Dadd9 - A
e|------2---|-------4----|-------7h5----|----6-----|-3-3-3-3-2-0------|-2--0-0||
b|----3---3-|-----5---4--|-----5-----5--|------6---|-0-0-0------3-2-0-|-3--2-2||
g|--2------2|---4-------4|---6---------6|-7------7-|-0-0-0-----------2|-2--2-2||
d|----------|------------|--------------|-5--------|-0-0-0------------|-2--2-2||
a|----------|------------|-0------------|----------|-2-2-2------------|-0--0-0||
E|2---------|-4----------|--------------|----------|-3-3-3------------|-------||

Estrofa 1:
D/F#          E/G#         A
  Ella solo intenta ser feliz
   Gm7        G Dadd9/A A
Tropezando está
D/F#          E/G#            A
 Nadan hoy sus ojos entre el rimel
    Gm7      Gmaj7
Su mentira, ya se hundió
       Cmaj7/G D
En la hiedra

Verso:
Em7          Am7  D/F#
Ves, en su abismo
         Gmaj7(II)        Em7
Con sus enaguas quiere escapar
        Am7 D/F#
De la bruma
      Gmaj7(II)
Tan apurada está
       F#                 F6/9
Que atropella el viento en la avenida

Corte:
e|----------------------------------|--||
b|---------------------10b11b10--8--|--||
g|-----2---0--7b8b7-5--------------9|--||
d|-------4--------------------------|x4||
a|---0------------------------------|--||
E|-0--------------------------------|--||

Estrofa 2:
(igual)
Hoy su inútil pétalo secó
Por su soledad
Y con las campanas se divierte
Pensando que son de aquí
La muerte

Verso:
(igual)
Ah, si pudiera
Si ella quisiera abrirse del ser
Y la nada
Tal vez podría ver
Que su Dios está en la adolescencia

Repite corte

Estrofa 3:
(igual)
Correrás al fin con frenesí
Por tu libertad
Pero ni bien una lagrima caiga
mil estrellas juzgaran que es en vano

Ya que Dios es un mundo 
En el que amar es la eternidad
Que uno busca 
Y no lo pienses mas
Que tu mueca esta tan despintada

Fin: Armónicos en 12

Deja un comentario

Tu dirección de correo electrónico no será publicada. Los campos obligatorios están marcados con *