Acordes:
Dm7: x57565
Dm7(b13): x58565
Cmaj7/11: x33453
C7sus2sus4: x33333
Bm7(b13): x25232
Fmaj7(b5): xx3200
Dm(#5): x5336x
Intro: Dm7 - Dm7(b13) - Cmaj7/11 - C7sus2sus4 - Bm7(b13) - Fmaj7(b5)

   Base Am7
e|-------------------------|--||
b|-------------------------|--||
g|-5-5--5--5---5--5---5--5-|--||
d|-5-5--5--4---4--3---3--2-|x2||
a|-0-0--0--0---0--0---0--0-|--||
E|-------------------------|--||

Estrofa 1:
(sobre base Am7)
Cuenco de sal
valle de eterna sal
hoyo en la piedra
donde guardar la fe

Todas las horas vivir
todas las horas vivir
hoja de ruta tus ojos
hoja de ruta tus ojos

Puente:
Dm(#5)
  Sin embargo
  Cmaj7/11         C7sus2sus4  
es tan atroz esta realidad 
          Fmaj7(b5)
que alguna cura le encontrarás

Corte:
e|-----------||-0--0--------------|--||----------|
b|--3---8--7-||-2--2--3---5--8--7-|--||-10-10-10-|
g|--4---7--7-||-2--2--2---4--7--7-|--||-9--9--9--|
d|--3---6--7-||-0--0--0---3--6--7-|x3||-8--8--8--|
a|-----------||-------------------|--||----------|
E|-----------||-------------------|--||----------|

Estrofa 2:
(igual) (sobre base Am7)
Marca de riel
marca de loco riel
donde quedó
donde quedó inventar

Todas las veces comer
todas las veces comer
hoja de ruta el adios
hoja de ruta el adios

Puente:
(igual)
tiempos inclementes de nacer aquí
en el rebaño del pastor

Repite Corte

Estrofa 3:
(igual)
Cuenco de sal
valle de eterna sal
hoyo en la piedra
donde guardar la fe

Todas las horas vivir
todas las horas vivir
hoja de ruta tus ojos
hoja de ruta el adiós

Puente:
(igual)
tiempos inclementes de nacer aquí
en el rebaño del pastor

Fin: Corte

Deja un comentario

Tu dirección de correo electrónico no será publicada. Los campos obligatorios están marcados con *