Intro:
e|--------|--||----------7-7-7-7-7-7-|--||
b|--------|--||----------7-7-7-7-7-7-|--||
g|-6-7-9--|x4||-6-7-9----7-7-7-7-7-7-|x4||
d|-7-7-9--|--||-7-7-9----5-5-5-5-5-5-|--||
a|--------|--||----------------------|--||
E|--------|--||----------------------|--||

Estrofa 1:

Sobre:
e|----------7-7-7-7-7-7-||
b|----------7-7-7-7-7-7-||
g|-6-7-9----7-7-7-7-7-7-||
D|-7-7-9----5-5-5-5-5-5-||
A|----------------------||
E|----------------------||

Corazón que se va en secreto
no estará aquí para ayudar
a salir, a salir hacia el Nilo
río de todos nuestros días

Verso:

Sobre:
e|----------3-3-3-3-3-3-|--||--------------------------------|-2-||
b|----------3-3-3-3-3-3-|--||--------------------------------|-3-||
g|-4-5-7----3-3-3-3-3-3-|x4||-4-5-7---4-5-7---4-5-7---4-5-7--|-2-||
d|-5-5-7----5-5-5-5-5-5-|--||-5-5-7---5-5-7---5-5-7---5-5-7--|-0-||
a|----------6-6-6-6-6-6-|--||--------------------------------|---||
E|----------------------|--||--------------------------------|---||

Y es que había una vez
una guía primitiva
es que había una vez
un ser humano al fin
un dulzór, un temor, 
un escape del alma

Estrofa 2:
(igual)
Incursión al poniente sin fin
no esperaran por ti jamas
para ir, para ir hacia el Nilo
río de todos los milagros

Verso:
(igual)
Y es que había una vez
una senda primitiva
es que había una vez
un ser humano al fin
un dulzón, un temor, 
un escape hacia el alma

Repite intro

Estrofa 3:
(igual)
La condición de un amor
en desvelo
se hace la forma de un reloj
a correr, a correr hacia el Nilo
ni lo se yo que aquí estaré, 
por siempre

Verso:
(igual)
Y es que había una vez
una guía primitiva
es que había una vez
un ser humano al fin
un dulzón, un temor, 
un escape hacia el alma

Fin sobre: intro

Deja un comentario

Tu dirección de correo electrónico no será publicada. Los campos obligatorios están marcados con *