Acordes:
G#sus4/C#: x411xx
A/C#: x422xx
B: x2444x
Amaj7: 5x554x
G#m7/11: 4x4422
C#m7: x4245x
Amaj7/9/13: 5x6677
F#m7/11: 202200
F#7/G#: 424322
G#maj7/9/13: 4x5566
G#7/A#: 646533
C#m7/11: 9x9977
Bm7/11: 7x7755
F#sus2: x1412x
F#sus2dim: x1411x
Intro: G#sus4/C# - A/C# (x3)

   G#sus4/C#    A/C# 
e|----------|----------|--|
b|----------|----------|--|
g|---1----1-|---2----2-|--|
d|---1----1-|---2----2-|x3|
a|4----4----|4----4----|--|
E|----------|----------|--|

Estrofa 1:
   G#sus4/C#    A/C#     G#sus4/C#    A/C#    G#sus4/C# A/C#    B
e|----------|----------|----------|----------|--------|------|--2--||
b|----------|----------|--------1-|-2--------|--------|------|--2--||
g|---1----1-|---2----2-|---1------|---2------|-----1--|---2--|--4--||
d|---1----1-|---2----2-|---1------|-----4--2-|-----1--|---2--|--4--||
a|4----4----|4----4----|4---------|----------|--4-----|---4--|--2--||
E|----------|----------|----------|----------|--------|------|-----||

G#sus4/C#       A/C#
El paisaje está dormido
G#sus4/C#      A/C#
danza en dulce lejanía
G#sus4/C#  A/C#               B
El reposo bajo el bosque me espera

Estrofa 2:
 G#sus4/C#   A/C#    G#sus4/C#   A/C#   G#sus4/C#  A/C#      B
e|-------|----------|--------|---------|---------|-----|------------||
b|-------|----------|------1-|2--------|---------|-----|------------||
g|---1---|-2----2-4-|//6-----|---2-----|--------1|--2--|-4-6-8---8h9||
d|---1---|-2----2-4-|//6-----|-----4--2|1h2p1---1|--2--|-4-6-7---7--||
a|-------|-4--------|--------|---------|------4--|--4--|------------||
E|-------|----------|--------|---------|---------|-----|------------||

G#sus4/C#            A/C#
Es fría la bruma alrededor
G#sus4/C#     A/C#
y nadie me dirá que no soy
G#sus4/C# A/C# B
como al desaparecer la luz

Verso:
Amaj7   Amaj7/13 G#m7/11      C#m7
Nada te di   -   ra: ésta es la sombra.
Amaj7     G#m7/11          C#m7
Nada te di - ra: ésta es la sombra.

(repite intro)
Estrofa 3:
  G#sus4/C#     A/C#     G#sus4  A/C#     G#sus4/C# A/C#   B   
e|--------|-------------|-----|---------|----------|----|--2--|
b|--------|-------------|----1|2--------|----------|----|--4--|
g|--1-----|-------------|-----|---2-----|----------|----|--4--|
d|--1-----|-1h2p1-------|--1--|-----4--2|1h2p1--2p1|----|--4--|
a|--------|-------4----2|-----|---------|----------|--4-|--2--|
E|--------|-------------|-----|---------|----------|----|-----|

G#sus4/C#    A/C# 
Una piedra y una flor
G#sus4/C#    A/C# 
es tan leve la inquietud que
 G#sus4/C#   A/C#            B 
en la brisa desciende desde el aire.

Estrofa 4:
  G#sus4/C#    A/C#      G#sus4   A/C#    G#sus4/C#  A/C#  B 
e|--------|-------------|-----|---------|----------|----|-------|
b|--------|-------------|----1|2--------|----------|----|-------|
g|--1-----|-------------|-----|---2-----|----------|----|-4/6-8-|
d|--1-----|-1h2p1-------|--1--|-----4--2|1h2p1--2p1|----|-4/6-7-|
a|--------|-------4----2|-----|---------|----------|--4-|-------|
E|--------|-------------|-----|---------|----------|----|-------|

G#sus4/C#    A/C#
Todo viene y todo va
  G#sus4/C#  A/C#
duramos una eternidad
   G#sus4/C# A/C#               B
y el reposo bajo el bosque me espera

Verso:
Amaj7/9/13   G#m7/11              C#m7
Nada te di -   rá:    ésta es la sombra.

e|12--9-9---------|
b|9---9-9---------|
g|9---9-9---9-8-9-|
d|----------9-9-9-|
a|----------------|
E|----------------|

Amaj7  G#m7/11           C#m7
Nada te dirá: ésta es la piedra, nada más.

    F#m7/11    F#7/G#    
Sólo espe    - ro 
    Gmaj7/13   G#7/A#
ser la nu  -   be 
       Amaj7    C#m7/11 Bm7/11  
que propicie tu llu  -  via.
    F#m7/11    F#7/G#    
Sólo espe    - ro 
    Gmaj7/13   G#7/A#
ser la nu  -   be 
       Amaj7    C#m7/11 Bm7/11  
que propicie tu llu  -  via.

F#sus2 F#sus2dim G#m7/11
temprano

Deja un comentario

Tu dirección de correo electrónico no será publicada. Los campos obligatorios están marcados con *