Acordes:
C#m7: 91199129
Amaj7(b5): xx789x
Cmaj7(b5): xx101112x
A: 577655
E7(#9): x7678x
G#: 466544
C#maj7: x43111
Cm: 81010888
F#maj7: x98666
Bbm: 688666
F: 133211
Fmaj7: x87555
B: 799877
E: 022100
A: 577655
C#m7: x46454
G#m7: 464474
F#m7: 242252
Intro:
e||----------------|--||----------------|--||
b||----------------|--||----------------|--||
g||----------------|--||----------------|--||
d||--6-5-4---------|x2||--3-2-1---------|x2||
a||--------1h2h3---|--||--------0h1h2---|--||
E||4------------3-2|--||3------------3-2|--||

e||----------------|--||----------------|--||
b||----------------|--||----------------|--||
g||----------------|--||----------------|--||
d||-6-5-4-3--------|x2||-3-2-1-0--------|x2||
a||--------1h2h3---|--||--------0h1h2---|--||
E||4------------3-2|--||3------------3-2|--||

C#m7 - Fill - Amaj7(b5) - Cmaj7(b5)

Fill:
e|-----------|
b|-----------|
g|-----------|
d|-----9-9/7-|
a|9/11-------|
E|-----------|

Estrofa 1:

C#m7 - Fill - Amaj7(b5) - Cmaj7(b5) 

    C#m7      Fill  - Amaj7(b5) - Cmaj7(b5)
Jugo de lúcuma
     C#m7        Fill - Amaj7(b5) - Cmaj7(b5)
chorreando en mí,
       C#m7        Fill - Amaj7(b5) - Cmaj7(b5) 
patas de mueble de bronce
   C#m7   Fill - Amaj7(b5) - Cmaj7(b5)
caminan ya

Verso:
A         E7(#9)       G#
Ardiendo están, apenas solas
      C#maj7
las esferas,
    Cm        F#maj7 
esperando por ellas

F - Bbm - Cm

Intermedio:
e|-------------|-9---9-9--|--||
b|-12---13/12--|-7---9-9--|--||
g|-11---12/11--|-7---9-9--|--||
d|-10---11/10--|-7---9-9--|x4||
a|-------------|----------|--||
E|-------------|----------|--||

Estrofa 2:
(igual)
Lorena duerme, 
perdió los zapatos, 
manchas de rouge y sangre
impiden verla

Verso:
(igual)
Arcos de luces de aquella noche
en la que bebí 
de su cuerpo de lúcuma

Repite intermedio

Solo:

e|----------------|---------|-----------|-----------------|-----------|
b|----------------|---------|-----------|---------------9-|---9-------|
g|----------------|---------|-----------|-------------9---|-9---9-----|
d|-------10-11-13-|-15-11-15|-11--------|-------10-11-----|-------9---|
a|-11-13----------|---------|----11-9---|-11-13-----------|---------12|
E|----------------|---------|-----------|-----------------|-----------|

e|----------|------------------------------|-------------9-11----9------14|
b|--------12|-12----12----10---------------|-----9-10-12------12--10-9----|
g|---9-12---|----12----12---12-11----------|-9-11---------------------11--|
d|-11-------|----------------------9-11-9-8|------------------------------|
a|12--------|------------------------------|------------------------------|
E|----------|------------------------------|------------------------------|

e|-------------|------------------4-------------|
b|-------------|-----------------------5----7---|
g|-------------|-------4-6-8-8--6---6---------4-|
d|-9-----------|-4-4h6--------------------------|
a|--11------9--|--------------------------------|
E|-----12-9----|--------------------------------|


 Fmaj7
Voy a extrañar
B          E
 una canción
A           C#m7
 Y ninguna más
                       G#m7
Ya que a esta la encontré
           F#m7
en tu dormitorio

Fin:
e|-------9-12-9-12b14-9-----------------|--|-------9-12-9-12b14-9---------|
b|9-10-12--------------9-----9----------|--|9-10-12--------------9-----9--|
g|----------------------11b13-11p9-11b13|--|----------------------11b13--9|
d|--------------------------------------|x7|------------------------------|
a|--------------------------------------|--|------------------------------|
E|--------------------------------------|--|------------------------------|

One thought on “Jugo de lúcuma

  1. Buenas, creo haber encontrado un error de información. En la parte del solo en vez de posición 15 va posición 14. Espero no molestar, es solo para que no haya confusiones, saludos!..

Deja un comentario

Tu dirección de correo electrónico no será publicada. Los campos obligatorios están marcados con *