Acordes:
Dm7: x57565
Em7: x79787
D/F#: 200232
C/G: 332010
Bb: x13331
G: 320003
F#m7: 242252
Intro:
(Fig. A)
    A5       Am  Am/G    D/A  C/A       G Bm7/F# Am7/E            
e|--0-0-0-|------0----|-----------|---------------|
b|--0-0-0-|------1----|--7----5---|----8-----7--5-|
g|--9-9-9-|--2---2----|--7----5---|----0-----7--5-|
d|--7-7-7-|--2---2----|--7----5---|----9-----7--5-|
a|--0-0-0-|--0---0----|--0----0---|----10----9--7-|
E|--------|------3----|-----------|---------------|
    ^ V ^
(Fig. B)
    Am      Am Am/G      D/A  C/A     G   Bm7/F# Am7/E 
e|--0-----|------0----|-----------|---------------|
b|--1-----|------1----|--7----5---|----8-----7--5-|
g|--2-----|--2---2----|--7----5---|----0-----7--5-|
d|--2-----|--2---2----|--7----5---|----9-----7--5-|
a|--0-----|--0---0----|--0----0---|----10----9--7-|
E|--------|------3----|-----------|---------------|

Estrofa 1:
(sobre Fig. B)
Am      Am/G   D/A  C/A   G    Bm7/F#  Am7/E
 Es mi espíritu que va   lle  -  va   - me 
Am     Am/G        D/A   C/A   G       Bm7/F#  Am7/E
Es mi mente que al sil - bar me en  -  can - ta 
Dm7                 Em7
 Hay un perro que me ladra 
                       (Fig. A+Fig. B) 
y está afuera desde aquí 

Estrofa 2:
(igual)
Es mi espíritu que da mil vueltas 
y se enreda en el jardín llevame 
Es así como mi abuelo 
se complace desde allá
 
Verso:
D/F#            C/G  Bb             Am   G
  mi mente ya entendió por qué está sola 
D/F#            C/G  Bb             Am   G
 mi mente ya entendió por qué está sola 
D/F#           (C#) (B)  (A) (G)  F#m7
  Por qué mi espí - ri - tu  se fue 

Intermedio:
   Dm      Dm/F        C     Bb
e|----------------|------------------|--||
b|------3-----3---|----------------3-|--||
g|---2------2-----|-------0------3---|--||
d|-0------3-----2-|----2-------3-----|x6|| (fade out)
a|----------------|-3--------1-------|--||
E|----------------|------------------|--||

Repite intro: Fig B - Fig A - Fig B

Estrofa 3:
(igual)
Es mi espíritu que va, llevame 
es mi mente que al silbar, me encanta. 
Es asi que ladra un perro 
y es que ladra desde allá. 

Puente:
D/F#          C/G Bb                (Fig. B x2)
 Mi mente ya está sola con la noche 

Verso:
D/F#           C/G Bb             Am     G
 mi mente ya entendió por qué está sola 
D/F#         (C#) (B) (A) (G) F#m7
 Por qué mi espí - ri - tu se fue 

Fin: Intermedio y fade out

Deja un comentario

Tu dirección de correo electrónico no será publicada. Los campos obligatorios están marcados con *