Acordes:
Em: 022000
D: xx0232
b: x799xx
Eb5: x688xx
D5: x577xx
C5: x355xx
Db5: x466xx
Bb5: x133xx
Gb5: 244xxx

Intro:  
         Em             D         Em
e|-------------------|-----------|-----|--||
b|-------------------|-----------|-----|--||
g|-9-11-12--12-11-9-7|-7--9-9-11-|--9--|--||
d|-9-11-12--12-11-9-7|-7--9-9-11-|--9--|x4||
a|-7-9--10--10-9--7-5|-5--7-7/9--|--7--|--||
E|-------------------|-----------|-----|--||

Estrofa 1:
(sobre riff de intro)
Em            D       Em
Amame peteribi, ama siempre
Em            D       Em
Amame peteribi, ama siempre
Em            D       Em
Amame peteribi, ama siempre
Em            D       Em
Amame peteribi, ama siempre
E5      Eb5            D5       Eb5      E5 (Riff 1)  
de esta manera ninguna chica te podria amar

Repite: 
E5 Eb5 D5 Eb5 E5 (Riff)  

Riff:
e|----------------------------|
b|--------------3----3v-/7vvv-|
g|-----------2----4-----------|
d|-2-2-2-2-5------------------|
a|----------------------------|
E|----------------------------|

Corte:
Riff - E5 Eb5 D5 Eb5 E5 - Riff

Estrofa 2:
(igual)
Amame peterebi, ama siempre
Amame peterebi, ama siempre
Amame peterebi, ama siempre
Amame peterebi, ama siempre
de esta manera ninguna chica te podría amar
piensalo bien, amigo 

Instrumental:
e|---------------------------------|----------------------|--||
b|---------------------------------|----------------------|--||
g|---------------------------------|----------------------|--||
d|---------------------------------|7p5---7p5--7p5--7-7/9-|x4||
a|-7-7-7-7-7-7-7-7-7-7-7-7-7-7-7-7-|----7----7----7-------|--||
E|-0-0-0-0-0-0-0-0-0-0-0-0-0-0-0-0-|----------------------|--||
 
C5 -  Bb5-Gb5 Bb5-Gb5 (x4)
C5 Db5 - C5 Db5 - C5 Db5 (x4)
D5 - Eb5

Solo sobre: E5 D5

Estrofa 3:
(igual)
Amame peterebi, ama siempre
Amame peterebi, ama siempre
Amame peterebi, ama siempre
Amame peterebi, ama siempre
de esta manera ninguna chica te podría amar

(Repite instrumental)

Fin: fade out

Deja un comentario

Tu dirección de correo electrónico no será publicada. Los campos obligatorios están marcados con *