Acordes:
Bm: 799777
Em: x79987
F#m: 244222
G: xx5787
G7: xx5767
D: xxx111010
Em7: 022033
D5: x577xx
F#: 244322
Bm(II): x24432
Intro:
e|--------------------|--------------------|--||
b|--------------------|--------------------|--||
g|--------------------|--------------------|--||
D|-7/9-9--9--7/9-9--9-|-9-7-5-4-2---4-5-7--|x8||
A|-7/9-9--9--7/9-9--9-|-9-7-5-4-2---4-5-7--|--||
E|-5/7-7--7--5/7-7--7-|-7-5-3-2-0---2-3-5--|--||


e|-7-----|-7-----|--||---------------|-7-----|---------------|-7-----|
b|-7-----|-7-----|--||---------------|-7-----|---------------|-7-----|
g|-7-----|-7-----|--||--------7------|-7-----|--------7------|-7-----|
d|-9-----|-9-----|x3||-----7----9-9--|-9-----|-----7---------|-9-----|
a|-9-----|-9-----|--||-8h9-----------|-9-----|-8h9-----------|-9-----|
E|-7-----|-7-----|--||---------------|-7-----|---------------|-7-----|
   ^          

Estrofa 1:
  Bm              Fill 1         Bm       Fill2
e|-7------7-----||----------------7-----|---------7------7-|--||
b|-7------7-----||----------------7-----|---------7------7-|--||
g|-7------7-----||--------7-------7-----|---------7------7-|--||
d|-9------9-----||-----7----9-9---9-----|-----7---9------9-|x2||
a|-9------9-----||-8h9------------9-----|-8h9-----9------9-|--||
E|-7------7-----||----------------7-----|---------7------7-|--||
   ^                                              ^ 
         Fill 3
e|---------------------|
b|---------------------|
g|--------7------------|
d|-----7----9-9--9b11vv|
a|-8h9-----------------|
E|---------------------|  
Bm                    Fill 1 - Fill 2
Vos no me dejaste nena
  Fill 1
Vos no me dejaste
  Fill 2        Fill 3
Tampoco yo a vos

Estrofa 2:
Em
Vos no me dejaste nena
Vos no me dejaste
   Bm            Fill 1+Fill 3
Tampoco yo a vos

Puente:
   F#m          G       G7
e|-2-------|-/7--7---|-7-----7-----7-----7-----7-----7-----|
b|-2-------|-/8--8---|---6-----6-----6-----6-----6-----6---|
g|-2---2---|-/7--7---|-----7-----7-----7-----7-----7-----7-|
d|-4-----4-|-/5--5---|-------------------------------------|
a|-4-------|---------|-------------------------------------|
E|-2-------|---------|-------------------------------------|
F#m            
  Muy bien yo sé que el tiempo es impreciso
G G7 
    No sé lo que pensar

Verso:
          D             Bm
Como el viento voy a ver
          D             Bm
Como el viento voy a ver
          D         Bm
Como el viento uhuhuh
                F#    Em7 D5 F# Bm(II)
Si es que puedo amarte

Solo sobre: Estrofa+Verso

Estrofa 3:
(igual)
Vos no me dejaste nena
Vos no me dejaste
Tampoco yo a vos

Estrofa 4:
(igual)
Vos no me dejaste
Vos no me dejaste
Tampoco yo a vos

Puente:
(igual)
Muy bien yo sé que el tiempo es infinito
No sé lo que pensar

Verso:
(igual)
Como el viento voy a ver
Como el viento voy a ver
Como el viento uhuhuhh
Si es que puedo amarte

Fin: Bm(II)

Deja un comentario

Tu dirección de correo electrónico no será publicada. Los campos obligatorios están marcados con *