Acordes:
Bb5: 668xxx
Ab5: 466xxx
C#: x46664
D#: x68886
Intro: Bb5 Ab5 Bb5 Ab5

Estrofa 1:
 
Riff 1:
     Ab5
e|------------|
b|------------|
g|-8--6-5-----|
d|-------8--6-|
a|------------|
E|------------|

 Bb5                      Ab5
No puedo evitar que mi memoria,
 Bb5                    (riff 1)
esté recompilando viejos tiempos
 Bb5                        Ab5
El pensamiento y todas esas cosas,
 Bb5                     (riff 1)
no tengo que olvidar que están en mi cuerpo

Verso:
   C#
Donde yo quiero estar
   D#
es lo que no interesa
   C#
No elijo el lugar
   D#
lo tomo por sorpresa 

(riff 2)
Uhh yeaaah

Riff 2:
Guitarra 1:
   Bb5                      Ab5  Bb5
e|------------------------|------------|--||
B|------------------------|------------|--||
G|------------------------|------------|--||
D|---6--------------------|------------|x4||
A|-----6-8----------------|------------|--||
E|6----------9----9-9-11--|--4-4-6-6---|--||

Guitarra 2:
   Bb5                      Ab5  Bb5
e|------------------------|------------|--||
B|------------------------|------------|--||
G|--15--------------------|------------|--||
D|-----13-15-11---11-11-13|------------|x4||
A|13----------------------|11-11-13-13-|--||
E|------------------------|------------|--||

Estrofa 2:
 Bb5                              Ab5
Despues de mucho andar, estar muy solo
 Bb5                     Ab5
La preocupación en mi cabeza
Bb5                         Ab5
tuve que dar mil vueltas y chocar en todos lados
 Bb5                 (riff 1)
para poder gozar el polvo de estrella

Verso:
(igual)
Donde yo quiero estar
es lo que no interesa
No elijo el lugar
lo tomo por sorpresa
uhh yeahh

Solo: Sobre Riff 2 (Bb5 - Ab5)

(Repite intro)

Estrofa 3:
(igual a estrofa 1)
El tiempo ya pasó en mis dedos,
la electricidad pierde potencia

Verso:
(igual)
menos mal que ahora 
el camino está sencillo,
que el viejo polvo 
no solo está conmigo

Solo: Sobre Riff 2 (Bb5 - Ab5)

Fin: Riff 2

Deja un comentario

Tu dirección de correo electrónico no será publicada. Los campos obligatorios están marcados con *