Acordes:
E5: 022xxx 
F5: 133xxx 
F#5: 244xxx 
G5: 355xxx 
G#5: 466xxx 
A5: 577xxx 
A#5: 688xxx 
B5: 799xxx 
C: 81010xxx 
C#5: 91111xxx 
D5: 101212xxx
D: x57775
Bb: x13331
F#: 244322
G: 355433
A: 577655
Em: x79987

 

Intro:
e|---------10-10-----10-10-10-10-10---------10-10-10------------------|
b|----10----------10---------------------10--------------10-----------|
g|-12b14-------12b14------------------12b14-----------12b14bbbbbbb12--|
D|--------------------------------------------------------------------|
A|--------------------------------------------------------------------|
E|--------------------------------------------------------------------|

E5 - F5 - F#5 - G5 - G#5 - A5 - A#5 - B5 - C5 - C#5   -  D5

Sigue: 
Riff 1:
e|---------------------------|--||--------|
b|-----------7-9-7--9/11-9-7-|--||--------|
g|-----------7-9-7--9/11-9-7-|--||--------|
D|---------------------------|x4||--------|
A|-8-9-10--------------------|--||-8-9-10-|
E|---------------------------|--||--------|
Estrofa 1:
 D         Bb
  ¡Hola, pequeño ser!
F#                G           A        D
  si tu mente se viaja tienes que parar
               Bb
No, no, no, pequeño ser
F#                 G           A        
  si tu mente se viaja tienes que parar
Em               A          G            D
  y aprender a vivir de lo que vos pensás

(Riff 1)

Estrofa 2:
(igual)
¡Hola a todos!, pequeño ser
lo que amaba en vos ya no lo tengo más.
No, no, no, pequeño ser
si tu mente se viaja tienes que parar
y aprender a vivir de lo que vos pensás.

Solo: G D (x2)

Corte:
  D5 C5 Bb5  A5 G5 F#5       (Riff 2)         D5    C5 Bb5 A5 G5 F#5 
e|--------------------|---------------------|----------------------|
b|--------------------|---------------------|----------------------|
g|--------------------|---------------------|----------------------|
D|-7--5--3------------|---------------------|--7-7--5--3-----------|
A|-5--3--1----7--5--4-|---2-3-4-5---4-5-6-7-|--5-5--3--1---7--5--4-|
E|------------5--3--2-|-3---------5---------|--------------5--3--2-|

Solo: G A (sobre riff 2)

Puente: 
  A5 G5 F5 E5  D5            F5 E5
e|--------------------------------|--||
b|10-8--6--5---3-3-3-3-3-3---6--5-|--||
g|9--7--5--4---2-2-2-2-2-2---5--4-|x6||
d|7--5--3--2---0-0-0-0-0-0---3--2-|--||
a|--------------------------------|--||
E|--------------------------------|--||

    A5    G5    F5      E5        D5 - F5 E5
Se acerca ya la sombra del cuervo
      A5     G5     F5      E5      D5 - F5 E5 
en la mesa está la araña de fiebre
  A5    G5   F5     E5               D5 - F5 E5
nadie quiere ya las flores del campo
        A5     G5     F5     E5        D5 - F5 E5
y en la tumba estás al lado del charco
              A5
y no podés más

Fin:
e|-------------------------------------------------------------------|
b|-------------------------------------------------------------------|
g|-------------------------------------------------------------------|
D|-------------------------------------------------------------------|
A|----3-5------------------------3-5---------------------------7-8---|
E|5-5-----3--1-0-1-0-1-0-1/5--5-5-----3--1-0-1-0-1-0-1-S-8--8-8----7-|

e|-----------------------------------------------|
b|-----------------------------------------------|
g|-----------------------------------------------|
D|-----------------------------------------------|
A|-----------------------7-8---------------------|
E|5-4-5-4-5-4-5-S-8--8-8-----7--5-4-5-4-5-4-5-5--|

Deja un comentario

Tu dirección de correo electrónico no será publicada. Los campos obligatorios están marcados con *