Acordes:
G: 320033
Gsus4: 320013
D/F#: 200232
C/G: 332010
Am: x02210
Bm: x24432
Bm/Bb: x14432
A: 577655
F#: 244322
Einv: x76454
F#m: 244222
E/G#: 4xx454
Ebadd9: x6506x
Cmaj7:  x3245x
Dm: x57765
Intro: 
                          G Gsus4                               G Gsus4
e|----------------------3-3-3-3-|--||-3-3-3-||--------0-------3-3-3-3-|--||
b|0-0h1p0---------------3-0-1-0-|--||-0-1-0-||--0-1-3---3-1-0-3-0-1-0-|--||
g|--------0h2p0---------0-0-0-0-|--||-0-0-0-||----------------0-0-0-0-|x2||
d|--------------0h2p0---0-0-0-0-|x3||-0-0-0-||----------------0-0-0-0-|--||
a|----------------------2-2-2-2-|--||-2-2-2-||----0-2-3-2-0---2-2-2-2-|--||
E|--------------------3-3-3-3-3-|--||-3-3-3-||--3-----------3-3-3-3-3-|--||

                                           G D/F# C/G               G
e|-2-3-5-5-3-2-0--|-2-3-3-2-0--|-----0-----3--2---0-|-----7-7-8h7-|------||
b|----------------|-----------0|-1-3---3-1-3--3---1-|----8--------|----3-||
g|----------------|------------|-----------0--2---0-|--7----------|---0--||
d|-0-2-4-4-2-0----|-0-2-2-0----|-----------0--0---2-|-0-----------|--0---||
a|-------------3--|---------3--|-0-2-3-2-0-2--0---3-|-------------|-2----||
E|----------------|-----------3|-----------3--2---3-|-------------|3-----||


Estrofa 1:
Arreglo:
   G Am G/B G/B Am G       G
e|-------------------|--||-3-||
b|-0--1--3--3--1--0--|--||-3-||
g|-------------------|--||-0-||
d|-------------------|x2||-0-||
a|----0--2--2--0-----|--||-2-||
E|-3--------------3--|--||-3-||

(sobre arreglo)
G  Am G/B  Am   G     
La cereza del zar
G  Am G/B  Am   G   G
Impulsada por él
Bm           Bm/Bb         A       (G)  F#  
  al caer el sol el zar miro las platas de su luna
Bm           C#m
loco por las calles va
A             Einv   F#m E  
buscando a la cereza
D/F#       E/G# 
sombras de nada
Bm           C#m
lo salude un rayo
A            Ebadd9 Cmaj7 Ebadd9 Cmaj7
el viento da pavor y      nie -  bla
    Dm          Am
las lajas de la calle
       G   D/F#  C/G  G  G - Gsus4 
y esta vo - la - du - ra
G  D/F# C/G G   G - Gsus4
de unos niños
G  D/F# C/G G  D/F# C/G
al ver  la  ce re   za 
   G
caer.

Deja un comentario

Tu dirección de correo electrónico no será publicada. Los campos obligatorios están marcados con *